Log in

One click and you are in

Login with Facebook Login with Google

Why sign up and log in

Guitar Tabs Explorer
Misc Original Songs tabs for Bite me

Guitar tabs

Title:  Bite Me
Tabbed by: Jeremy Forsythe

Every 2 -'s are a 16th note/rest.
Tempo is either 60 or 120 beats per minute.

Play Fig. 1-8 twice each.  Repeat this, then play Fig. 9

Fig. 1
E:----2-----2-----2-----2-----2--|----1-----1-----1-----1-----1--|
B:--3-----3-----3-----3-----3---3|--2-----2-----2-----2-----2---2|
G:2-----2-----2-----2-----2------|1-----1-----1-----1-----1------|
D:-------------------------------|-------------------------------|
A:-------------------------------|-------------------------------|
E:-------------------------------|-------------------------------|

Fig. 2
E:2---2-----2-2---2-----2-2---2--|1---1-----1-1---1-----1-1---1--|
B:3-3-----3---3-3-----3---3-3---3|2-2-----2---2-2-----2---2-2---2|
G:2-----2-----2-----2-----2------|1-----1-----1-----1-----1------|
D:0-----------0-----------0------|-------------------------------|
A:-------------------------------|4-----------4-----------4------|
E:-------------------------------|-------------------------------|

Fig. 3
E:------2-----------2-----------2|------1-----------1-----------1|
B:----3---3-------3---3-------3--|----2---2-------2---2-------2--|
G:--2-------2---2-------2---2----|--1-------1---1-------1---1----|
D:0-----------0-----------0------|-------------------------------|
A:-------------------------------|4-----------4-----------4------|
E:-------------------------------|-------------------------------|

Fig. 4
E:2-----2-----2-----2-----2-----2|1-----1-----1-----1-----1-----1|
B:3---3---3---3---3---3---3---3--|2---2---2---2---2---2---2---2--|
G:2-2-------2-2-2-------2-2-2----|1-1-------1-1-1-------1-1-1----|
D:0-----------0-----------0------|-------------------------------|
A:-------------------------------|4-----------4-----------4------|
E:-------------------------------|-------------------------------|

Fig. 5
E:----2-----2-----2-----2-----2--|----1-----1-----1-----1-----1--|
B:--3-----3-----3-----3-----3---3|--2-----2-----2-----2-----2---2|
G:2-----2-----2-----2-----2------|1-----1-----1-----1-----1------|
D:-------------------------------|-------------------------------|
A:-------------------------------|-------------------------------|
E:-------------------------------|-------------------------------|

Fig. 6
E:2---2-----2-2---2-----2-2---2--|1---1-----1-1---1-----1-1---1--|
B:3-3-----3---3-3-----3---3-3---3|2-2-----2---2-2-----2---2-2---2|
G:2-----2-----2-----2-----2------|1-----1-----1-----1-----1------|
D:0-----------0-----------0------|-------------------------------|
A:-------------------------------|4-----------4-----------4------|
E:-------------------------------|-------------------------------|

Fig. 7
E:------2-----------2-----------2|------1-----------1-----------1|
B:----3---3-------3---3-------3--|----2---2-------2---2-------2--|
G:--2-------2---2-------2---2----|--1-------1---1-------1---1----|
D:0-----------0-----------0------|-------------------------------|
A:-------------------------------|4-----------4-----------4------|
E:-------------------------------|-------------------------------|

Fig. 8
E:2-----2-----2-----2-----2-----2|1-----1-----1-----1-----1-----1|
B:3---3---3---3---3---3---3---3--|2---2---2---2---2---2---2---2--|
G:2-2-------2-2-2-------2-2-2----|1-1-------1-1-1-------1-1-1----|
D:0-----------0-----------0------|-------------------------------|
A:-------------------------------|4-----------4-----------4------|
E:-------------------------------|-------------------------------|

Fig. 9
E:2------------------------------|
B:3------------------------------|
G:2------------------------------|
D:0------------------------------|
A:-------------------------------|
E:-------------------------------|

Almost there ...

Sign in to get your own page with links to favourite songs and more. You are just one click away...

Login with Facebook Login with Google