Log in

One click and you are in

Login with Facebook Login with Google

Why sign up and log in

Guitar Tabs Explorer
Misc Musicals bass tabs for Tick tick boom - 30 90

Tick Tick Boom - 30 90 bass tab by Misc Musicals

Misc Musicals bass tabs for Tick tick boom - 30 90

Bass tabs

Bass doesn't play at the start


Verse 1:

 Freeze the frame
G|---------------------------------------------------------------------------|
D|---------------------------------------------------------------------------|
A|-----3--3--3--3--3--3--3--3--3--3--3--3--3--3--3--3------------------------|
E|--3------------------------------------------------------------------------|
                                         x2 but first part is halved
G|---------------------------------------------------------------------------|
D|---------------------------------------------------------------------------|
A|---------------------------------------------------------------------------|
E|--0--1--1--1--1--1--1--1--1--1--1--1--1--1--1--1--1------------------------|

G|---------------------------------------------------------------------------|
D|---------------------------------------------------------------------------|
A|---------------------------------------------------------------------------|
E|--3--3--3----3-----1--1--1----1----3--3--3----3-----1--1--1----1-----------|

G|---------------------------------------------------------------------------|
D|---------------------------------------------------------------------------|
A|---------------------------------------------------------------------------|
E|--3--3--3----3-----1--1--1----1----0--0--0----0-----1--1--1----1-----------|

 Don't panic
G|---------------------------------------------------------------------------|
D|---------------------------------------------------------------------------|
A|------0--2--3-------0--2--3-----5--0--2--3---5--0--2--3--------------------|
E|---1-------------1---------------------------------------------------------|

G|---------------------------------------------------------------------------|
D|---------------------------------------------------------------------------|
A|--6--6--6--6--6--6---6--6--6--6--6--6--------------------------------------|
E|----------------------------------------6--6--6--6--6--6---3--3--3--3--3--3|


Chorus:

 They're singing
G|---------------------------------------------------------------------------|
D|---------------------------------------------------------------------------|
A|---3-3-3-3-3-3-3-3---------------------------------------------------------|
E|---------------------5-5-5-5-5-5-5-5---0-0-0-0-0-0-0-0---1-1-1-1-1-1-1-1---|
                                         x2
G|---------------------------------------------------------------------------|
D|---------------------------------------------------------------------------|
A|---3-3-3-3-3-3-3-3---------------------5-5-5-5-5-5-5-5-----------------3---|
E|---------------------5-5-5-5-5-5-5-5-----------------------1-----3---------|

G|-------------5-------------------------------------------------4--5--------|
D|----------5----------------------------3--------------------5--------------|
A|--3---------------------------------3----------------3---------------------|
E|--------------------0---1--1--------------0--1--3--------------------------|

G|---------------------------------------------------------------------------|
D|-----------------2--3------------------------------------------------------|
A|--------------3-------------------2------3---------------------------------|
E|--0--1--1------------------0---3-------------------------------------------|


Verse 2:

 Clear the runway
G|---------------------------------------------------------------------------|
D|------------------------------0-2-3-3-3-3-3-3-3-3-3-3-3-3-3-3-2-0----------|   x2
A|--3-3-3-3-3-3-3-3-3-3-3-3-3-3----------------------------------------------|
E|---------------------------------------------------------------------------|

G|---------------------------------------------------------------------------|
D|---------------------------------------------------------------------------|
A|---------------------------------------------------------------------------|
E|--3-3-3-3-3-3-3-3--1-1-1-1-1-1-1-1--3-3-3-3-3-3-3-3--1-1-1-1-1-1-1-1-------|

G|---------------------------------------------------------------------------|
D|---------------------------------------------------------------------------|
A|---------------------------------------------------------------------------|
E|--3-3-3-3-3-3-3-3--1-1-1-1-1-1-1-1--0-0-0-0-0-0-0-0--0-0-0-0-0-0-0-0-------|

Don't freak out
G|---------------------------------------------------------------------------|
D|---------------------------------------------------------------------------|
A|------0--2--3-------0--2--3-----5--0--2--3---5--0--2--3--------------------|
E|---1-------------1---------------------------------------------------------|

G|---------------------------------------------------------------------------|
D|---------------------------------------------------------------------------|
A|--6--6--6--6--6--6---6--6--6--6--6--6--------------------------------------|
E|----------------------------------------6--6--6--6--6--6---3--3--3--3--3--3|


Chorus:

 They're singing
G|---------------------------------------------------------------------------|
D|---------------------------------------------------------------------------|
A|---3-3-3-3-3-3-3-3---------------------------------------------------------|
E|---------------------5-5-5-5-5-5-5-5---0-0-0-0-0-0-0-0---1-1-1-1-1-1-1-1---|
                                         x2
G|---------------------------------------------------------------------------|
D|---------------------------------------------------------------------------|
A|---3-3-3-3-3-3-3-3---------------------5-5-5-5-5-5-5-5-----------------3---|
E|---------------------5-5-5-5-5-5-5-5-----------------------1-----3---------|

G|-------------5-------------------------------------------------4--5--------|
D|----------5----------------------------3--------------------5--------------|
A|--3---------------------------------3----------------3---------------------|
E|--------------------0---1--1--------------0--1--3--------------------------|

G|---------------------------------------------------------------------------|
D|-----------------2--3----------------2-------------------------------------|
A|--------------3-------------------2-------5--------------------------------|
E|--0--1--1------------------0----3---------------5----3---------------------|


Bridge:

 Peter Pan and Tinkerbell
G|--7----5--4------------5----4--2--0-------------3----2--0------------------|
D|-------------7--5--------------------3---------------------3--1----6-------|
A|-----------------------------------------------------------------------8--7|
E|---------------------------------------------------------------------------|

G|---------7---------------------------------------------------------3-------|
D|------------7----------------------------0--2--3-----3--2------------3--0--|
A|--5---5--------8--10----7--5-------------------------------1--1------------|
E|------------------------------8----8--8------------------------------------|

G|-----------------------------------------------------1----0----------------|
D|--1--1--1--1--1--1--1--1-----------------------0--1-----------1------------|
A|--------------------------3--3--3--3--3--3--3------------------------------|
E|-----------------------------------------------------------------4-4-4-4---|

G|---------------------------------------------------------------------------|
D|---------------------------------------------------------------------------|
A|---------------------------------------------------------------------------|
E|--1-1-1-1---3-3-3-3--------------------------------------------------------|


Chorus:

 They're singing
G|---------------------------------------------------------------------------|
D|---------------------------------------------------------------------------|
A|---5-5-5-5-5-5-5-5---2-2-2-2-2-2-2-2---------------------------------------|
E|---------------------------------------2-2-2-2-2-2-2-2---3-3-3-3-3-3-3-3---|

G|---------------------------------------------------------------------------|
D|---------------------------------------2-2-2-2-2-2-2-2---------------------|
A|---5-5-5-5-5-5-5-5---2-2-2-2-2-2-2-2-----------------------------------5---|
E|-----------------------------------------------------------3-----5---------|

G|---------------------------------------------------------------------------|
D|---------------------------------------------------------------------------|
A|---5-5-5-5-5-5-5-5---2-2-2-2-2-2-2-2---------------------------------------|
E|---------------------------------------2-2-2-2-2-2-2-2---3-3-3-3-3-3-3-3---|

G|---------------------------------------------------------------------------|
D|---------------------------------------------------------------------------|
A|---5-5-5-5-5-5-5-5---2-2-2-2-2-2-2-2---------------------------0--2--0--2--|
E|---------------------------------------0--0--0--0--0--0--0--3--------------|


G|---------------------------------------------------------------------------|
D|---------------------------------------------------------------------------|
A|--2-2-2-2-2-2-2------------------------0--2--0--2--2-2-2-2-2---------------|
E|-----------------3-2-0-0-0-0-0-0-0--3-------------------------3-2-0-0-0-0--|

G|------------------------------------------------------------------------7--|
D|---------------------------------------------------------------------7-----|
A|-------------------------------------------------------------2-4-5---------|
E|-0-0-0-0--2-2-2-2-2-2-2-2--3-3-3-3-3-3-3-3--5-5-5-5-5-5-5-5----------------|

G|----------------------------------7----------------------------------------|
D|--------------5----------------7--------------------5----------------------|
A|-----------5---------------5---------------------5------------4--5---------|
E|--2--3-3-----------2-3--5---------------2--3-3----------2--5---------------|


Well done :)

Almost there ...

Sign in to get your own page with links to favourite songs and more. You are just one click away...

Login with Facebook Login with Google