Log in

One click and you are in

Login with Facebook Login with Google

Why sign up and log in

Guitar Tabs Explorer
Misc Irish tabs for The minstrel boy

Guitar tabs with lyrics

Here it is, in all its glory.


THE MINSTREL BOY TO THE WAR HAS GONE

(Traditional)
Note:  the tuning of the guitar is Dropped-D! (DADGBE)

         A chord diagramD MajorD                                       A chord diagramA augmentedA       A chord diagramD MajorD
e:-----|--------------------------------|--------------------------------|
B:-----|--------------------------------|----------------3-------2---3---|
G:-----|----------------0---------------|--------2-------2---------------|
D:-----|-0----------2-------4---2---0---|-4------2-------4-------2---4---|
A:-0---|--------------------------------|--------0-----------------------|
D:-----|-0--------------0---------------|-0--------------0---------------|
   The   Min-     strel bo-oy   to  ...


 A chord diagramG+G       A chord diagramD MajorD                          A chord diagramA augmentedA               A chord diagramD MajorD
----------------------------------|---------------------------------|
-0--------------------------------|---------------------------------|
-0-------2-----------0---0h2p0----|---------------------------------|
-0-------0-------4------------4---|-2-------2h4p2p0-0---------------|
----------------------------------|-0---------------------------0---|
-5-------0------------------------|-----------------6---------------|
   ranks   of      de-ath  you  will  ....


 A chord diagramD MajorD                                       A chord diagramA augmentedA       A chord diagramD MajorD
--------------------------------|--------------------------------|
--------------------------------|----------------3-------2---3---|
----------------0---------------|--------2-------2---------------|
-0----------2-------4---2---0---|-4------2-------4-------2---4---|
--------------------------------|--------0-----------------------|
-0--------------0---------------|-0--------------0---------------|
 fa -     ther'sswo-ord he has    gir...


 A chord diagramG+G       A chord diagramD MajorD                          A chord diagramA augmentedA               A chord diagramD MajorD
----------------------------------|---------------------------------|
-0--------------------------------|---------------------------------|
-0-------2-----------0---0h2p0----|---------------------------------|
-0-------0-------4------------4---|-2-------2h4p2p0-0---------------|
----------------------------------|-0-------------------------------|
-5-------0------------------------|-----------------6---------------|
 Wild    harp    slu-u-  ung  be-   hi....

 A chord diagramB minorBm      A chord diagramA augmentedA       A chord diagramG+G       A chord diagramA augmentedA         A chord diagramG+G       A chord diagramA augmentedA       A chord diagramD MajorD
---------------------------------|---------------------------------|
-3-------2-------0-------2-------|-0-------------------------------|
-4-------2-------0-------2-h-3---|-0-------2-----------------------|
-4-------2-------0-------2-------|-0-------2-------4-------0-------|
-2-------0---------------0-------|---------0-----------------------|
-----------------5---------------|-5---------------0---------------|
 "Land   of      song,"  saidthe   .....


 A chord diagramG+G                                 A chord diagramA augmentedA       A chord diagramD MajorD
---------------------------------|-----------------------------|
-0---------------------------0---|-2-h-3---3-------------------|
-0-----------2---0-------2-------|-2-------2-------------------|
-0-------0---------------0-------|-2-------4---------------7-\-|
---------------------------------|-0---------------------------|
-5---5-------------------5-------|---------0-------------------|
 all         the world   be- tra.....


 A chord diagramD MajorD                                       A chord diagramA augmentedA       A chord diagramD MajorD
--------------------------------|--------------------------------|
--------------------------------|----------------3-------2-h-3---|
----------------0---------------|--------2-------2---------------|
-0----------2-------4---2---0---|-4------2-------4-------2-h-4---|
--------------------------------|--------0-----------------------|
-0--------------0---------------|-0--------------0---------------|
 sword      at  lea- ea-eastthy   roads  ....


 A chord diagramG+G       A chord diagramD MajorD                          A chord diagramA augmentedA               A chord diagramD MajorD
----------------------------------|---------------------------------|
-0--------------------------------|---------------------------------|
-0-------2-----------0---0h2p0----|---------------------------------|
-0-------0-------4------------4---|-2-------2h4p2p0-0---------------|
----------------------------------|-0-------------------------------|
-5-------0------------------------|-----------------6---------------|
 faith-  ful     hea-ea- eart shall ....


Arrangement by John Lumsdaine
Put into tablature by Alan Bostick, using Ofir Zwebnir's TAB MASTER program.
--
                        | ELYOT:   Nasty insistent little tune.
-- Alan Bostick         | AMANDA:  Extraordinary how potent cheap music is.
   abostick@netcom.com  | Noel Coward, PRIVATE LIVES
finger for PGP public key
Key fingerprint 50 22 FB 46 41 A3 17 9D A chord diagramF7F7 33 E1 4E 1C 89 79

Other versions of The Minstrel Boy

The minstrel boyChords

Almost there ...

Sign in to get your own page with links to favourite songs and more. You are just one click away...

Login with Facebook Login with Google