Log in

One click and you are in

Login with Facebook Login with Google

Why sign up and log in

Guitar Tabs Explorer
Misc Irish tabs for Congress reel

Guitar tabs

Here is a fairly easy version of an Irish tune, The Congress Reel.

3h=hammer-on triplet (hammer-on 2nd note, pull-off for 3rd)

4/4 time, standard tuning

Part A chord diagramA augmentedA
                 3h
E0---------------|030-5-0-3-0-2---|0---------------|----------------|
B----------0-1-3-|--------------3-|----------0-1---|0---------------|
G--2-2-0-2-------|----------------|--2-2-0-2-----2-|--0-0-2-0-2-0-3-|
D----------------|----------------|----------------|----------------|
A----------------|----------------|----------------|----------------|
E----------------|----------------|----------------|----------------|
                 3h                3h
0---------------|303-5-0-3-0-----|--------0-3-0---|----------------|
----------0-1-3-|------------3-0-|131-1-3-------3-|1---0-----------|
--2-2-0-2-------|----------------|----------------|--2---0-2-0-1-3-|
----------------|----------------|----------------|----------------|
----------------|----------------|----------------|----------------|
----------------|----------------|----------------|----------------|


Part A chord diagramBB

0-5-5-3-5-7-5-3-|0-5-5-5-3-0-0-3-|0-5-3---0-5-3---|0-5-5-5-3-0-0-3-|
----------------|----------------|------3-------3-|----------------|
----------------|----------------|----------------|----------------|
----------------|----------------|----------------|----------------|
----------------|----------------|----------------|----------------|
----------------|----------------|----------------|----------------|


                      3h
0-5-5-3-5-7-5-3-|0-5-5-5-3-0-0---|--------0-3-0---|----------------|
----------------|--------------0-|131-1-3-------3-|1---0-----------|
----------------|----------------|----------------|--2---0-2-0-1-3-|
----------------|----------------|----------------|----------------|
----------------|----------------|----------------|----------------|
----------------|----------------|----------------|----------------|


Chords:
spaces indicate measures
Part A chord diagramA augmentedA

A chord diagramA minorAm AmG A chord diagramA minorAm A chord diagramG+G A chord diagramA minorAm AmG CG GAm

Part A chord diagramBB

A chord diagramA minorAm AmG A chord diagramG+G A chord diagramA minorAm A chord diagramA minorAm AmG CG GAm
*********************************************************************
| Kelly Cox                                                          |
| kellycox@znet.com                                                  |
| 415-967-6384                                                       |
|                                                                    |
|  Now Nortons, and Indians, and Greeves' won't do, they don't have  |
| the sould of a Vincent '52. -Richard Thompson                      |
*********************************************************************

Almost there ...

Sign in to get your own page with links to favourite songs and more. You are just one click away...

Login with Facebook Login with Google