Log in

One click and you are in

Login with Facebook Login with Google

Why sign up and log in

Guitar Tabs Explorer
Misc Irish tabs for Black velvet band

Guitar tabs

Black Velvet Band       Traditional Irish Song

Transcribed by K Woodgate

Easy melody Version

>         A chord diagramG+G                             A chord diagramC majorC                        A chord diagramD7D7
>e|-----|---------------|-------------|-----------------------|-------------
>B|--3--|-3--3--0--2--3-|-2--0--(0)---|----------0------------|-------3---2-
>G|-----|---------------|-----------2-|-0---2-------0---------|-------------
>D|-----|---------------|-------------|-------------------4-2-|-0-(0)-------
>A|-----|---------------|-------------|-----------------------|-------------
>E|-----|---------------|-------------|-----------------------|-------------
>  Twas   in the town of  Tra-lee ap - pren-...
>   A chord diagramG+G                                       A chord diagramA minorAm         A chord diagramD7D7           A chord diagramG+G
>e|-------------------|-------------------|----------------------|----------|
>B|-0---0--0----------|-------------0-----|---------2------------|--------3-|
>G|-------------------|-0---0----2-----0--|-2----0----------0--2-|-0-(0)----|
>D|-----------0--2---4|-------------------|------------4---------|----------|
>A|-------------------|-------------------|----------------------|----------|
>E|-------------------|-------------------|----------------------|----------|
>  Plen-ty of bright a-muse-ment to ...
>   A chord diagramG+G                                         A chord diagramC majorC
>e|--------------------------|--------------|---------------------------|
>B|-3--3---3----0--2----3----|-2--0--(0)----|-----------0---------------|
>G|--------------------------|----------2---|-0------2-----0------------|
>D|--------------------------|--------------|--------------------4----3-|
>A|--------------------------|--------------|---------------------------|
>E|--------------------------|--------------|---------------------------|
>  For-tune and trou-ble came  o'er ...
>  A chord diagramD7D7            A chord diagramG+G                                       A chord diagramAm7Am7        A chord diagramD7D7
>e|-------------|---------------------------|-----------|--------------------
>B|-------3---2-|-0--0---0------------------|-----0-----|----0--2------------
>G|-------------|---------------------------|-0-2-----0-|-2------------0---2-
>D|-0-(0)-------|------------0-------2---4--|-----------|-----------4--------
>A|-------------|---------------------------|-----------|--------------------
>E|-------------|---------------------------|-----------|--------------------
>Land,- Far a- way from my friends and re- lations ...
>   A chord diagramG+G
>e|--------------|
>B|--------------|
>G|-0------------|
>D|--------------|
>A|--------------|
>E|--------------|
>   Band
>
>Chorus:
>        A chord diagramG+G                                          A chord diagramC majorC
>e|----|--------------------------|----------------|------------------------
>B|-3--|-3-----3----0-------2--3--|-2--0-(0)-------|-----------0------------
>G|----|--------------------------|------------2---|-0-----2-------0--------
>D|----|--------------------------|----------------|--------------------4-2-
>A|----|--------------------------|----------------|------------------------
>E|----|--------------------------|----------------|------------------------
>  Her  eyes, they spark-...
the
>
>  A chord diagramD7D7              A chord diagramG+G                                    A chord diagramAm7Am7      A chord diagramD7D7
>e|---------------|-------------------|---------------|----------------------
>B|-------3---2---|-0---0-------------|------0--------|----0---2-------------
>G|---------------|-------------------|-0--2-------0--|-2--------------0---2-
>D|-0-(0)---------|----------0---2-4--|---------------|-----------4----------
>A|---------------|-------------------|---------------|----------------------
>E|---------------|-------------------|---------------|----------------------
>Land,-With her hair thrown o-ver her ...
>
>   A chord diagramG+G
>e|--------------|
>B|--------------|
>G|-0------------|
>D|--------------|
>A|--------------|
>E|--------------|
>   Band

Almost there ...

Sign in to get your own page with links to favourite songs and more. You are just one click away...

Login with Facebook Login with Google