Log in

One click and you are in

Login with Facebook Login with Google

Why sign up and log in

Guitar Tabs Explorer
Misc Country chords for Rawhide

Guitar chords with lyrics

This is an adaptation of the "Rawhide" melody, copped from Guy
van Duser's "Great Western TV Medley", although he does it with a
capo at the second fret.  Let me take this opportunity to plug
Guy -- if you get a chance to hear his CD "American Fingerstyle
Guitar", do so.  The "hat" symbol in this is a hammer or pull-
off.  Now, think of the Blues Brothers in the country bar.  8-)
              4X   Rollin'Rollin'Rollin...
---------|--------|-----------------------------0-----0-----0----
---------|--1---1-|-----1-----1-----1---1---0^1---0^1---0^1-----1
---------|--2---2-|-0^2---0^2---0^2-----2-----------------------2
--2^0----|--2---2-|---------------------2-----------------------2
------2^4|0-------|-0-----------0-----------0-----------0--------
---------|----0---|-------0-----------0-----------0-----------0--

               Rawhide...
---3---3---3-----3----------------5--5--5-----3--3-0-------------
-5---5---5-----5------5---5---5----------5-----------3-----------
-5---5---5-----5------5---5---5-----------------------2----------
-----------------------------------------------------------------
-3-------3-------3------3---------0-----0-----0------0-----------
-----3-------3------3-------3--------0-----0-----0------0--------


-3--3-0----------------------------------------------------------
--------3--------------------------------------------------------
---------2--2-0-2---Can use A chord diagramA minorAm for gang vocal: "Move 'em out!"etc
----------------2------------------------------------------------
-0------0-------0------------------------------------------------
----0-------0----------------------------------------------------


Is that last verse about cattle or women?  A chord diagramA minorAm I naive for even
wondering?

Cordially,

Blind Squirrel Bowerman

Almost there ...

Sign in to get your own page with links to favourite songs and more. You are just one click away...

Login with Facebook Login with Google