Log in

One click and you are in

Login with Facebook Login with Google

Why sign up and log in

Guitar Tabs Explorer
Misc Country tabs for Freight train

Guitar tabs

Return-path: <tgtchb@chem.tue.nl>
 id <01HE5DJIANQO9KP2CV@ttacs.ttu.edu>; Thu, 30 Jun 1994 09:53:12 CST
 (5.65c/IDA-1.4.4 for <ribtm@ttacs1.ttu.edu>); Thu, 30 Jun 1994 16:52:21 +0200
 (5.65c/IDA-1.4.4 for ribtm@ttacs1.ttu.edu); Thu, 30 Jun 1994 16:52:29 +0200
 (5.64+/TUE-1.1 for ribtm@ttacs1.ttu.edu); Thu, 30 Jun 94 16:52:19 +0200
In-reply-to: <01HE5BWJ2XWA9KOSG2@ttacs.ttu.edu> from "Greg Vaughn" at Jun 30,
 94 09:06:13 am
Message-id: <9406301452.AA29005@tc0.chem.tue.nl>
Content-type: text
Content-transfer-encoding: 7BIT
Content-length: 3224

                Freight Train - Trad. Arr: A.Birney
                 A chord diagramC majorC                             A chord diagramG+G              A chord diagramG7G7
e|-----------||--3------0----|--------------|---------3----|--1-----------|
A chord diagramBB|-----------|*--------------|--3-----1-----|--0---0-------|--------------|
A chord diagramG+G|-----------||--------------|--------------|--------------|--------------|
A chord diagramD MajorD|-----------||-----2--------|-----2-----2--|-----0-----0--|-----0-----0--|
A chord diagramA augmentedA|-----0--2--|*--3--------2--|--3-----------|--------------|--------------|
A chord diagramE MajorE|--3--------||--------3-----|--------3-----|--3-----3-----|--3-----3-----|
                 m      i       m     i
                 p  p  p  p     p  p  p  p


                       A chord diagramG7G7                      A chord diagramC majorC
              |--5------1----|--0-----------|---------3----|--0-----------|
              |--------------|--------3-----|--1-----------|--------------|
              |--------------|--------------|--------------|--------------|
              |-----0-----0--|-----0-----0--|-----2-----2--|-----2-----2--|
              |--------------|--------------|--3-----------|--3-----------|
              |--5-----3-----|--3-----3-----|--------3-----|--------3-----|


                                            _______________________________
                 A chord diagramE MajorE                    A chord diagramE7E7    I  A chord diagramFF
              |--0------1----|--0-----------|--------------|--------------|
              |--------------|--------3-----|--1------3----|--1------3----|
              |--------------|--------------|--------------|--------------|
              |-----2-----2--|-----2-----2--|-----3-----3--|-----3-----3--|
              |--------------|--------------|--------------|--------------|
              |--0-----0-----|--0-----0-----|--1-----1-----|--1-----1-----|


                                             ______________________________
   A chord diagramC majorC              A chord diagramG+G              A chord diagramC majorC     A chord diagramG+G     1. A chord diagramC majorC            2. A chord diagramC majorC
|--0-----------|--------------|--------------|--------------||------------||
|---------1----|------0--3----|--1------0----|--1-----------*|--1------1--||
|--------------|--0-----------|--------------|--------------||--0------0--||
|-----2-----2--|-----0-----0--|-----2-----0--|--------------||------------||
|--3-----------|--------------|--3-----------|--3-----0--2--*|--3------3--||
|--------3-----|--3-----3-----|--------3-----|-----3--------||------------||


        Comments, corrections, suggestions & flames welcome.

                    Bo. (tgtchb@chem.tue.nl)

Almost there ...

Sign in to get your own page with links to favourite songs and more. You are just one click away...

Login with Facebook Login with Google