Log in

One click and you are in

Login with Facebook Login with Google

Why sign up and log in

Guitar Tabs Explorer
Misc Country tabs for Foggy mountain top

Guitar tabs with lyrics

Foggy Mountian top

Carter style solo   Arr:Julin /trad
            A chord diagramG+G                               A chord diagramC majorC
     | | |   |-|-|-|  |  |      |  |  |  |    |=| |-|  |  |
e----------[---3---3-----3--|------------3-|------0-0-----------|--------
B----0-1-2-[-3---3----3-----|---0--------0-|------1-1-----------|--------
G----------[----------------|------2--0----|------0-0--0--2-----|--------
D----------[----------------|--------------|--------------------|--------
A----------[----------------|--------------|--0h2---------------|--------
E----------[----------------|--------------|--------------------|--------

  A chord diagramG+G                                                A chord diagramD MajorD
    |  |-|  |  |     |-|-|-|  |  |    |  |  |  |    |  |-|  |  |-|
e------3-3--------|----3---3-----3-|-----------3--|----2-2-----2-2----|--
B------0-0--0--1--|--3---3----3----|--0--------3--|----3-3-----3-3----|--
G---0-------------|----------------|-----2--0-----|-2--2-2-----2-2----|--
D-----------------|----------------|--------------|-------------------|--
A-----------------|----------------|--------------|---------0---------|--
E-----------------|----------------|--------------|-------------------|--

  A chord diagramD MajorD                A chord diagramG+G                                 A chord diagramC majorC
   |  |-|  | |      |-|-|-|  |  |    |  |   |  |      |  |-| |-|  |
e-----2-2--------|----3---3--------|---------------|-----------------|---
B-----3-3--0-1---|--3---3-------0--|---------------|-----------------|---
G-----2-2--------|-----------3-----|-0-------------|-----------0-----|---
D--0-------------|-----------------|---------------|-----0-1-2----2--|---
A----------------|-----------------|--------0--2---|--3--------------|---
E----------------|-----------------|-----3---------|-----------------|---

  A chord diagramG+G                               A chord diagramD MajorD                A chord diagramG+G
   |  |  |  |     |-|-|-|  |  |     |  |-|  |  |    |  |-|  |-| |-|
e--------------|----3---3-----3--|-----2-2--------|----3-3-------------|-
B-----0--1--2--|--3---3----0-----|-----3-3--------|----0-0-------------|-
G--0-----------|-----------------|--2--2-2--0--2--|-0------------------|-
D--------------|-----------------|----------------|---------2p0--------|-
A--------------|-----------------|----------------|-------------2p0----|-
E--------------|-----------------|----------------|--------------------<-

  A chord diagramG+G
   |  |-|  |  |   (reprise)
e-----3-3--3--3---|]-----------------------------------------------------
B-----0-0--0--0--*|]-----------------------------------------------------
G-----0-0--0--0---|]-----------------------------------------------------
D-----------------|]-----------------------------------------------------
A--3-------------*|]-----------------------------------------------------
E-----------------|]-----------------------------------------------------

Ending
   |-|-|-|  |-|-|-|      |-|-|-|  |-|-|-|     |  |-|  |-|-|-|   |o   |o
e--3-3-2-0------------|--------------------|-------------------|-------3-
B-----------3-1-0-----|--------------------|-------------------|-------0-
G-----------------2---|--0-0---------------|-------------------|-0-----0-
D---------------------|------4-2--0--------|------------0-2-0--|-------0-
A---------------------|-------------3-2-0--|-----0-1--2--------|-------2-
E---------------------|--------------------|--3----------------|-------3-


Notation
Rhythm : "o"  whole note
         "|o" half note
         "|"  qarter note
         "|-" sixteenth note
         "|=" 32,nd note

fingring: "/" slide up
          "\" slide down
          "h" hammeron
          "p" Pull off
          "b" bend to ( )
          "r" release bend

FOGGY MOUNTAIN TOP


A chord diagramG+G        |A chord diagramG+G      |A chord diagramC majorC             |A chord diagramG+G
if i was on some foggy ...

A chord diagramG+G     |A chord diagramG+G         |A chord diagramD MajorD           |A chord diagramD MajorD
sail away to the .....I'd

A chord diagramG+G         |A chord diagramG+G         |A chord diagramC majorC         |A chord diagramG+G
sail all around this ...

A chord diagramG+G      |A chord diagramD MajorD       |A chord diagramG+G      |A chord diagramG+G
girl i love the ....


2:
if i'd have listened to ....

3:
Oh, she caused me to ....

Almost there ...

Sign in to get your own page with links to favourite songs and more. You are just one click away...

Login with Facebook Login with Google