Log in

One click and you are in

Login with Facebook Login with Google

Why sign up and log in

Guitar Tabs Explorer
Misc Computer Games tabs for Willow - nockmaar castle

Willow - Nockmaar Castle tab by Misc Computer Games

Misc Computer Games tabs for Willow - nockmaar castle

Guitar tabs

This is the theme from the Nockmaar Castle area from Willow on the NES.


Gtr I (E A D G B E) - 'Untitled'
Gtr II (E A D G B E) - 'Untitled'

  Gtr I
  A chord diagramE MajorE A chord diagramE MajorE A chord diagramE MajorE A chord diagramE MajorE   A chord diagramE MajorE A chord diagramE MajorE A chord diagramE MajorE A chord diagramE MajorE  A chord diagramE MajorE S S A chord diagramE MajorE A chord diagramE MajorE   A chord diagramE MajorE  A chord diagramE MajorE A chord diagramE MajorE A chord diagramE MajorE A chord diagramE MajorE A chord diagramE MajorE  A chord diagramE MajorE  A chord diagramE MajorE
|---------|--------------------|-----------------10-|
|---------|--------------------|---10-9---8---------|
|---------|-7---9---10-9-7-9---|-7------9---9-10----|
|---7-5-7-|---7---7----------7-|--------------------|
|---------|--------------------|--------------------|
|---------|--------------------|--------------------|
|
| Gtr II
|           Q   Q    Q     Q     Q    Q   Q    Q
|---------|--------------------|--------------------|
|---------|--------------------|--------------------|
|---------|----------7-----9---|-7----9---7---------|
|---------|-8---7--------------|---------------8----|
|---------|--------------------|--------------------|
|---------|--------------------|--------------------|


   A chord diagramE MajorE  A chord diagramE MajorE A chord diagramE MajorE A chord diagramE MajorE A chord diagramE MajorE A chord diagramE MajorE A chord diagramE MajorE A chord diagramE MajorE   H      H
|-10----6---8---5---|-------------------|
|----10---8---8---6-|--------8----------|
|-------------------|-7-----------------|
|-------------------|-------------------|
|-------------------|-------------------|
|-------------------|-------------------|
|
|  Q    Q   Q   Q     Q  A chord diagramE MajorE A chord diagramE MajorE Q   A chord diagramE MajorE A chord diagramE MajorE
|-------------------|-------------------|
|-------------------|-------------------|
|-------7-------5---|----7---9--10-9----|
|--7--------5-------|------7------------|
|-------------------|-8-----------------|
|-------------------|-------------------|

  A chord diagramE MajorE A chord diagramE MajorE A chord diagramE MajorE A chord diagramE MajorE  A chord diagramE MajorE S S A chord diagramE MajorE A chord diagramE MajorE   A chord diagramE MajorE  A chord diagramE MajorE A chord diagramE MajorE A chord diagramE MajorE A chord diagramE MajorE A chord diagramE MajorE  A chord diagramE MajorE  A chord diagramE MajorE
|--------------------|-----------------10-|
|--------------------|---10-9---8---------|
|-7---9---10-9-7-9---|-7------9---9-10----|
|---7---7----------7-|--------------------|
|--------------------|--------------------|
|--------------------|--------------------|
|
| Q   Q    Q     Q     Q    Q   Q    Q
|--------------------|--------------------|
|--------------------|--------------------|
|-7--------7-----9---|-7----9---7---------|
|-----7--------------|---------------8----|
|--------------------|--------------------|
|--------------------|--------------------|


   A chord diagramE MajorE  A chord diagramE MajorE A chord diagramE MajorE A chord diagramE MajorE A chord diagramE MajorE A chord diagramE MajorE A chord diagramE MajorE A chord diagramE MajorE   H      H
|-10----6---8---5---|-------------------|
|----10---8---8---6-|--------8----------|
|-------------------|-7-----------------|
|-------------------|-------------------|
|-------------------|-------------------|
|-------------------|-------------------|
|
|  Q    Q   Q   Q     Q  A chord diagramE MajorE A chord diagramE MajorE Q   A chord diagramE MajorE A chord diagramE MajorE
|-------------------|-------------------|
|-------------------|-------------------|
|-------7-------5---|----7---9--10-9----|
|--7--------5-------|------7------------|
|-------------------|-8-----------------|
|-------------------|-------------------|


  A chord diagramE MajorE A chord diagramE MajorE  A chord diagramE MajorE A chord diagramE MajorE  A chord diagramE MajorE S S  A chord diagramE MajorE A chord diagramE MajorE    A chord diagramE MajorE  A chord diagramE MajorE A chord diagramE MajorE A chord diagramE MajorE  A chord diagramE MajorE A chord diagramE MajorE  A chord diagramE MajorE  A chord diagramE MajorE
|----------------------|-------------------10-|
|----------------------|----10-9----8---------|
|-7----9---10-9-7--9---|--7------9----9-10----|
|---7----7-----------7-|----------------------|
|----------------------|----------------------|
|----------------------|----------------------|
|
| A chord diagramE MajorE A chord diagramE MajorE  A chord diagramE MajorE A chord diagramE MajorE  A chord diagramE MajorE A chord diagramE MajorE    A chord diagramE MajorE A chord diagramE MajorE    A chord diagramE MajorE  A chord diagramE MajorE A chord diagramE MajorE A chord diagramE MajorE  A chord diagramE MajorE A chord diagramE MajorE  A chord diagramE MajorE  A chord diagramE MajorE
|----------------------|----------------------|
|----------------------|----------------------|
|-7--------------------|----------------------|
|-------------7--------|-----7--------------7-|
|---8-10-7--8-----10-8-|-------7-7-10-7--8----|
|----------------------|-10-------------------|


   A chord diagramE MajorE  A chord diagramE MajorE A chord diagramE MajorE  A chord diagramE MajorE A chord diagramE MajorE  A chord diagramE MajorE A chord diagramE MajorE A chord diagramE MajorE   H      H
|-10----6----8----5---|------------------|
|----10----8----8---6-|--------8---------|
|---------------------|-7----------------|
|---------------------|------------------|
|---------------------|------------------|
|---------------------|------------------|
|
|  A chord diagramE MajorE  A chord diagramE MajorE A chord diagramE MajorE  A chord diagramE MajorE A chord diagramE MajorE  A chord diagramE MajorE A chord diagramE MajorE A chord diagramE MajorE   Q  A chord diagramE MajorE A chord diagramE MajorE Q  A chord diagramE MajorE A chord diagramE MajorE
|---------------------|------------------|
|---------------------|------------------|
|--7------------------|------------------|
|-----7-8-----------7-|--------5---------|
|---------10-7-10-8---|-5--7------8-7----|
|---------------------|------5-----------|


  S S S S S S S S  S S S S  S S S S   S S  S S S S  S S S S S S  S  S  S  S
|-----------------------------------|------------------------------------10-|
|-----------------------------------|-----10---9--------8---8---------------|
|-7-------9-------10---9-7--9-------|-7------7---9----9---9---9-10----10----|
|---7-5-7---7-5-7----7--------7-5-7-|---7----------11--------------12-------|
|-----------------------------------|---------------------------------------|
|-----------------------------------|---------------------------------------|
|
| Q       Q        Q        Q         Q        A chord diagramE MajorE    A chord diagramE MajorE   Q        A chord diagramE MajorE     A chord diagramE MajorE
|-----------------------------------|---------------------------------------|
|-----------------------------------|---------------------------------------|
|---------7-------------------------|-------------------7--------9-----6----|
|-7------------------------10-------|----------8----------------------------|
|-----------------10----------------|-8------------10-----------------------|
|-----------------------------------|---------------------------------------|


   S  S  S  S  S  S  S  S S S  S S  S  S  S  S   S S S S S S  S S S S  S S S S  S S
|-10----------------------8--------------------|---------------------------------------|
|----10----10-11------------8----8-10----------|------------------8--------8-----------|
|-------10-------12----12------9------10----10-|-7-------7----------9----9---7-10-9----|
|-------------------12-------------------10----|---7---7---8----8-----11---------------|
|----------------------------------------------|-----8-------10------------------------|
|----------------------------------------------|---------------------------------------|
|
|  A chord diagramE MajorE     A chord diagramE MajorE     A chord diagramE MajorE     A chord diagramE MajorE    A chord diagramE MajorE    A chord diagramE MajorE    A chord diagramE MajorE     A chord diagramE MajorE      Q       A chord diagramE MajorE    A chord diagramE MajorE   Q        A chord diagramE MajorE    A chord diagramE MajorE
|----------------------------------------------|---------------------------------------|
|----------------------------------------------|---------------------------------------|
|--7-------------------------------------------|---------------------------------------|
|--------7-----8--------------------------7----|------------------5--------------------|
|-------------------10----7---10----8----------|-5-------7-----------------8----7------|
|----------------------------------------------|--------------5------------------------|


  S S S S S S S S  S S S S S S S S   S S  S S S S  S S S S S S  S  S  S  S
|----------------------------------|------------------------------------10-|
|----------------------------------|-----10---9--------8---8---------------|
|-7-------9-------10---9-7-9-------|-7------7---9----9---9---9-10----10----|
|---7-5-7---7-5-7----7-------7-5-7-|---7----------11--------------12-------|
|----------------------------------|---------------------------------------|
|----------------------------------|---------------------------------------|
|
| Q       Q        Q       Q         Q        Q        Q        Q
|----------------------------------|---------------------------------------|
|----------------------------------|---------------------------------------|
|------------------7-------9-------|-7--------9--------7-------------------|
|-8-------7------------------------|----------------------------8----------|
|----------------------------------|---------------------------------------|
|----------------------------------|---------------------------------------|


   S  S  S  S  S  S  S  S  S S S S  S  S  S  S   S S S S S S  S S S S  S S S S  S S
|-10-----------------------8-------------------|---------------------------------------|
|----10----10-11-------------8---8-10----------|------------------8--------8-----------|
|-------10-------12----12------9------10----10-|-7-------7----------9----9---7-10-9----|
|-------------------12-------------------10----|---7---7---8----8-----11---------------|
|----------------------------------------------|-----8-------10------------------------|
|----------------------------------------------|---------------------------------------|
|
|  Q           Q           Q        Q            Q       A chord diagramE MajorE    A chord diagramE MajorE   Q        A chord diagramE MajorE    A chord diagramE MajorE
|----------------------------------------------|---------------------------------------|
|----------------------------------------------|---------------------------------------|
|--------------7-------------------------------|------------------7--------9----6------|
|--7-------------------------------10----------|---------8-----------------------------|
|-------------------------10-------------------|-8-----------10------------------------|
|----------------------------------------------|---------------------------------------|


  S S S S  S S S S  S S S S  S S S S    S S  S S S S  S S  S S S S  S  S  S  S
|------------------------------------|--------------------------------------10-|
|------------------------------------|------10---9---------8---8---------------|
|-7--------9-------10---9-7--9-------|--7------7---9----9----9---9-10----10----|
|---7-5-7----7-5-7----7--------7-5-7-|----7----------11---------------12-------|
|------------------------------------|-----------------------------------------|
|------------------------------------|-----------------------------------------|
|
| A chord diagramE MajorE   A chord diagramE MajorE    A chord diagramE MajorE   A chord diagramE MajorE    A chord diagramE MajorE   A chord diagramE MajorE    A chord diagramE MajorE   A chord diagramE MajorE      A chord diagramE MajorE    A chord diagramE MajorE   A chord diagramE MajorE    A chord diagramE MajorE    A chord diagramE MajorE   A chord diagramE MajorE    A chord diagramE MajorE     A chord diagramE MajorE
|------------------------------------|-----------------------------------------|
|------------------------------------|-----------------------------------------|
|-7----------------------------------|-----------------------------------------|
|-----------------------7------------|-------7----------------------------7----|
|-----8---10---7----8-------10---8---|-----------7----7---10---7----8----------|
|------------------------------------|-10--------------------------------------|


   S  S  S  S  S  S  S  S S S  S S  S  S  S  S   S S S S S S  S S S S  S S S S  S S   H    +Q   +S
|-10----------------------8--------------------|------------------------------------|------------------|
|----10----10-11------------8----8-10----------|------------------8--------8--------|------------------|
|-------10-------12----12------9------10----10-|-7-------7----------9----9---7-10-9-|-7----(7)--(7)----|
|-------------------12-------------------10----|---7---7---8----8-----11------------|------------------|
|----------------------------------------------|-----8-------10---------------------|------------------|
|----------------------------------------------|------------------------------------|------------------|
|
|  A chord diagramE MajorE     A chord diagramE MajorE     A chord diagramE MajorE     A chord diagramE MajorE    A chord diagramE MajorE    A chord diagramE MajorE    A chord diagramE MajorE     A chord diagramE MajorE      Q       A chord diagramE MajorE    A chord diagramE MajorE   Q        A chord diagramE MajorE    A chord diagramE MajorE     H    +Q   +S
|----------------------------------------------|------------------------------------|------------------|
|----------------------------------------------|------------------------------------|------------------|
|--7-------------------------------------------|------------------------------------|------------------|
|--------7-----8--------------------------7----|------------------5-----------------|------------------|
|-------------------10----7---10----8----------|-5-------7-----------------8----7---|-5----(5)--(5)----|

Almost there ...

Sign in to get your own page with links to favourite songs and more. You are just one click away...

Login with Facebook Login with Google