Log in

One click and you are in

Login with Facebook Login with Google

Why sign up and log in

Guitar Tabs Explorer
Misc Computer Games bass tabs for Undertale - megalovania

Undertale - Megalovania bass tab by Misc Computer Games

Misc Computer Games bass tabs for Undertale - megalovania

Bass tabs

Difficulty: Intermediate

Undertale - MegaLoVania
Tuning: Standard


Main riff:

G|-----7-----------------------------7------------------------|
D|--------7----6--5-----------5---------7----6--5-----------5-|
A|-5-5---------------8----5-8----------------------8----5-8---|
E|-------------------------------8-8--------------------------|

G|-----7-----------------------------7------------------------|
D|--------7----6--5-----------5---------7----6--5-----------5-|
A|-------------------8----5-8----------------------8----5-8---|
E|-7-7---------------------------6-6--------------------------|


ACTUAL BASSLINE (for the full version of the song)

Part 1: x 4

G|-----------------------------------------------------|
D|-----------------------------------------------------|
A|-5--5--5-5--5--5--5--5-5-5-3--3--3-3--3--3--3--3-3-3-|
E|-----------------------------------------------------|

G|-----------------------------------------------------|
D|-----------------------------------------------------|
A|-2--2--2-2--2--2--2--2-2-2-1--1--1-1--3--3--3--3-3-3-|
E|-----------------------------------------------------|

Part II: x 4

G|-----------------------------------------------------|
D|-----------------------------------------------------|
A|-1--1--1-1--1--1--1--1-1-1-3--3--3-3--3--3--3--3-3-3-|
E|-----------------------------------------------------|

G|-----------------------------------------------------|
D|-----------------------------------------------------|
A|-5--5--5-5--5--5--5--5-5-5-4--4--4-4--6--6--6--6-6-6-|
E|-----------------------------------------------------|


Part III: x 2

G|-----------------------------------------------------|
D|-----------------------------------------------------|
A|-1--1--1-1--1--1--1--1-1-1-3--3--3-3--3--3--3--3-3-3-|
E|-----------------------------------------------------|

G|-----------------------------------------------------|
D|-----------------------------------------------------|
A|-2--2--2-2--2--2--2--2-2-2-2--2--2-2--2--2--2--2-2-2-|
E|-----------------------------------------------------|

G|-----------------------------------------------------|
D|-----------------------------------------------------|
A|-1--1--1-1--1--1--1--1-1-1-3--3--3-3--3--3--3--3-3-3-|
E|-----------------------------------------------------|

G|-----------------------------------------------------|
D|-----------------------------------------------------|
A|-5--5--5-5--5--5--5--5-5-5-5--5--5-5--5--5--5--5-5-5-|
E|-----------------------------------------------------|


Part IV: x 2

G|-----------------------------------------------------|
D|-----------------------------------------------------|
A|-1--1--1-1--1--1--1--1-1-1-3--3--3-3--3--3--3--3-3-3-|
E|-----------------------------------------------------|

G|-----------------------------------------------------|
D|-----------------------------------------------------|
A|-5--5--5-5--4--4--4--4-4-4-3--3--3-3--2--2--2--2-2-2-|
E|-----------------------------------------------------|

G|-----------------------------------------------------|
D|-----------------------------------------------------|
A|-1--1--1-1--1--1--1--1-1-1-3--3--3-3--3--3--3--3-3-3-|
E|-----------------------------------------------------|

G|-----------------------------------------------------|
D|-----------------------------------------------------|
A|-5--5--5-5--5--5--5--5-5-5-5--5--5-5--5--5--5--5-5-5-|
E|-----------------------------------------------------|

Almost there ...

Sign in to get your own page with links to favourite songs and more. You are just one click away...

Login with Facebook Login with Google