Log in

One click and you are in

Login with Facebook Login with Google

Why sign up and log in

Guitar Tabs Explorer
Misc Computer Games guitar tabs for The legend of zelda ocarina of time - song of storms

The Legend Of Zelda Ocarina Of Time - Song Of Storms tab by Misc Computer Games

Misc Computer Games guitar tabs for The legend of zelda ocarina of time - song of storms

Guitar tabs

Tuning: Standard (E A D G B E)



e|-------------------0-1-0-1-0-----|
B|------3-------3--------------1---|
G|-------------------------------2-|
D|--0-3-----0-3--------------------|
A|---------------------------------|
E|---------------------------------|

e|--------------------------------|
B|--------------------------------|
G|--2---------2---2-------0-------|
D|----0---0-3-------0---3---2-----|
A|--------------------------------|
E|--------------------------------|

e|-------------------0-1-0-1-0-----|
B|------3-------3--------------1---|
G|-------------------------------2-|
D|--0-3-----0-3--------------------|
A|---------------------------------|
E|---------------------------------|

e|--------------------------------|
B|--------------------------------|
G|--2---------2-------2-----------|
D|----0---0-3------------0--------|
A|--------------------------------|
E|--------------------------------|

Almost there ...

Sign in to get your own page with links to favourite songs and more. You are just one click away...

Login with Facebook Login with Google