Log in

One click and you are in

Login with Facebook Login with Google

Why sign up and log in

Guitar Tabs Explorer
Misc Computer Games guitar tabs for The legend of zelda ocarina of time - kakariko village

The Legend Of Zelda Ocarina Of Time - Kakariko Village tab by Misc Computer Games

Misc Computer Games guitar tabs for The legend of zelda ocarina of time - kakariko village

Guitar tabs with lyrics

Tuning: A chord diagramD MajorD Tuning (A chord diagramD MajorD A chord diagramG MajorG A chord diagramC majorC A chord diagramFF A chord diagramA majorA A chord diagramD MajorD)

Title: Kakariko Village (Only Guitar) From "The Legend of Zelda: Ocarina Of Time"
Composers: Koji Kondo, Toru Minegishi
Tabber: gnaomo (enrico.balbe)
Tempo = 67 bpm
Classic Guitar

Tuning = DGCFAD

************************************
This is the guitar
part playing alongside
the ocarina/armonica/xilophone

On every beat of the song
you let ring the strings
************************************


Intro:

    A chord diagramBb majorBb             A chord diagramG minorGm            A chord diagramC7sus4C7sus4        A chord diagramF7F7
d||--------0-----|-------------|-------3-----|-------1-----|
A||------1---1---|-------1-----|-----1---1---|-----3---3---|
F||o---0-------0-|-----2---2---|---2-------2-|---0-------4-|
C||o-------------|---2-------2-|-0-----------|-------------|
G||--3-----------|-0-----------|-------------|-------------|
D||--------------|-------------|-------------|-3-----------|
     let ring      let ring      let ring...       rall...


Section A:


    A chord diagramBb majorBb              A chord diagramG minorGm            A chord diagramC7sus4C7sus4        A chord diagramF7F7
d|---------0-----|-------------|-------3-----|-------1-----|
A|-------1---1---|-------1-----|-----1---1---|-----3---3---|
F|-----0-------0-|-----2---2---|---2-------2-|---0-------4-|
C|---------------|---2-------2-|-0-----------|-------------|
G|---3-----------|-0-----------|-------------|-------------|
D|---------------|-------------|-------------|-3-----------|
                                                   rall...

   A chord diagramBb majorBb             A chord diagramG minorGm            A chord diagramC7sus4C7sus4        A chord diagramF7F7
d|--------0-----|-------------|-------3-----|-------1-----|
A|------1---1---|-------1-----|-----1---1---|-----3---3---|
F|----0-------0-|-----2---2---|---2-------2-|---0-------4-|
C|--------------|---2-------2-|-0-----------|-------------|
G|--3-----------|-0-----------|-------------|-------------|
D|--------------|-------------|-------------|-3-----------|
                                                  rall...


Section B:


   A chord diagramEb MajorEb            A chord diagramF7F7            A chord diagramBb majorBb            A chord diagramG MajorG
d|-------------|-------------|-------------|-------------|
A|-----1---1---|-----0---0---|-----1---1---|-----2---2---|
F|-------2---2-|-------0---0-|---0---0---0-|---2---2---2-|
C|-------------|---0---------|-------------|-------------|
G|---3---------|-------------|-3-----------|-0-----------|
D|-1-----------|-3-----------|-------------|-------------|


   A chord diagramC7sus4C7sus4        A chord diagramF7F7            A chord diagramBb majorBb
d|-------------|-------------|-------------|-------------|
A|-----1---1---|-----0---0---|-----1---1---|-----1---1---|
F|---2---2---2-|-------------|---0---0---0-|---0---0---0-|
C|-0-----------|---0---0---0-|-------------|-------------|
G|-------------|-------------|-3-----------|-3-----------|
D|-------------|-3-----------|-------------|-------------|
                                                 rall...


Section A:


    A chord diagramBb majorBb              A chord diagramG minorGm            A chord diagramC7sus4C7sus4        A chord diagramF7F7
d||---------0-----|-------------|-------3-----|-------1-----|
A||-------1---1---|-------1-----|-----1---1---|-----3---3---|
F||o----0-------0-|-----2---2---|---2-------2-|---0-------4-|
C||o--------------|---2-------2-|-0-----------|-------------|
G||---3-----------|-0-----------|-------------|-------------|
D||---------------|-------------|-------------|-3-----------|
                                                    rall...


   A chord diagramBb majorBb             A chord diagramG minorGm            A chord diagramC7sus4C7sus4        A chord diagramF7F7
d|--------0-----|-------------|-------3-----|-------1-----|
A|------1---1---|-------1-----|-----1---1---|-----3---3---|
F|----0-------0-|-----2---2---|---2-------2-|---0-------4-|
C|--------------|---2-------2-|-0-----------|-------------|
G|--3-----------|-0-----------|-------------|-------------|
D|--------------|-------------|-------------|-3-----------|
                                                  rall...


Section B:


   A chord diagramEb MajorEb            A chord diagramF7F7            A chord diagramBb majorBb            A chord diagramG MajorG
d|-------------|-------------|-------------|-------------|
A|-----1---1---|-----0---0---|-----1---1---|-----2---2---|
F|-------2---2-|-------0---0-|---0---0---0-|---2---2---2-|
C|-------------|---0---------|-------------|-------------|
G|---3---------|-------------|-3-----------|-0-----------|
D|-1-----------|-3-----------|-------------|-------------|


   A chord diagramC7sus4C7sus4        A chord diagramF7F7            A chord diagramBb majorBb
d|-------------|-------------|-------------|-------------|
A|-----1---1---|-----0---0---|-----1---1---|-----1---1---|
F|---2---2---2-|-------------|---0---0---0-|---0---0---0-|
C|-0-----------|---0---0---0-|-------------|-------------|
G|-------------|-------------|-3-----------|-3-----------|
D|-------------|-3-----------|-------------|-------------|
                                                 rall...


Section C:


   A chord diagramEb MajorEb                          A chord diagramBb/DBb/D
d|-----1---1---|-----1---1---|-----0---0---|-----0---0---|
A|-----1---1---|-----1---1---|-----1---1---|-----1---1---|
F|-------2---2-|-------2---2-|---0---0---0-|---0---0---0-|
C|-------------|-------------|-------------|-------------|
G|---3---------|---3---------|-------------|-------------|
D|-1-----------|-1-----------|-0-----------|-0-----------|


   A chord diagramCm7Cm7           A chord diagramF7F7            A chord diagramBb majorBb            Ddim/Bb
d|-----1---1---|-----1---1---|-----0---0---|-----0---0---|
A|-----1---1---|-----0---0---|-------------|-------------|
F|---2---2---2-|-------------|---0---0---0-|---0---0---0-|
C|-0-----------|---0---0---0-|-----10--10--|-----8---8---|
G|-------------|-------------|-------------|-------------|
D|-------------|-3-----------|-8-----------|-6-----------|
                                                 rall...

   A chord diagramEb MajorEb                          A chord diagramBb/DBb/D          A chord diagramG MajorG
d|-----1---1---|-----1---1---|-----0---0---|-----0---0---|
A|-----1---1---|-----1---1---|-----1---1---|-----2---2---|
F|-------2---2-|-------2---2-|---0---0---0-|---2---2---2-|
C|-------------|-------------|-------------|-------------|
G|---3---------|---3---------|-------------|-0-----------|
D|-1-----------|-1-----------|-0-----------|-------------|


   A chord diagramC minorCm            A chord diagramFadd9Fadd9   A chord diagramFF     A chord diagramBsus4Bsus4   A chord diagramBB
d|-----1---1---|-----5---3---|-----1---0-----||
A|-----3---3---|-----0---0---|-----1---1-----||   repeat
F|---2---2---2-|-------------|---0---0---0--o||    from
C|-0-----------|---0---0---0-|--------------o||   Intro:
G|-------------|-------------|-3-------------||
D|-------------|-3-----------|---------------||
                                   rall...


Legenda
************************************

| rall... -> slowly

||---------         ---------||
||---------         ---------||
||o--------   and   --------o||   --> Repeat Bars
||o--------         --------o||
||---------         ---------||
||---------         ---------||

************************************

Almost there ...

Sign in to get your own page with links to favourite songs and more. You are just one click away...

Login with Facebook Login with Google