Log in

One click and you are in

Login with Facebook Login with Google

Why sign up and log in

Guitar Tabs Explorer
Misc Computer Games guitar tabs for The last of us part ii - unbroken

The Last Of Us Part Ii - Unbroken tab by Misc Computer Games

Misc Computer Games guitar tabs for The last of us part ii - unbroken

Guitar tabs

Tuning: Drop A chord diagramD MajorD (A chord diagramD MajorD A chord diagramA majorA A chord diagramD MajorD A chord diagramG MajorG A chord diagramBB A chord diagramE MajorE)


Intro:

E|---------------------------------------------------------------------------|
B|---------------------------------------------------------------------------|
G|---------------------------------------------------------------------------|
D|------0-2-3--------2---------------0-2----0--------0-2-3--------2----------|
A|----0------------3----3----------3--------0------0------------3----3-------|
D|--0------------5--------5----0-5----------0----0------------5--------5-----|

E|---------------------------------------------------------------------------|
B|---------------------------------------------------------------------------|
G|---------------------------------------------------------------------------|
D|--------0-2----0-----------------------------------------------------------|
A|------3--------0-----------------------------------------------------------|
D|--0-5----------0-----------------------------------------------------------|


Verse 1:

E|---------------------------------------------------------------------------|
B|---------------------------------------------------------------------------|
G|------------------------------------------------------------------0--------|
D|----7-5-3-5-2------0---0-2-3-----7-7h8p7-3-5-2------0-----------2----------|
A|---------------------0----------------------------1-----------3------------|
D|--0-------------0--------------0--------------------------0-5--------------|

E|---------------------------------------------------------------------------|
B|---------------------------------------------------------------------------|
G|---------------------------------------------------------------------------|
D|--3-2-0---------0-------2---0----------------------------------------------|
A|--0-----0-----1-------3-----0----------------------------------------------|
D|--0---------0-------0-------0----------------------------------------------|


Chorus:

E|--------5-3-1-3-------------------------------5-3-1-3----------------------|
B|------3---------5---------3---3-5-6---------3---------5--------------------|
G|----2-------------------2---2-------------2--------------------------------|
D|--0-------------------0----------------------------------------------------|
A|---------------------------------------------------------------------------|
D|----------------------------------------0----------------------------------|

E|-------------1-------1-------1--------------------------1-0----------------|
B|------3----3---3---3---3---3----3----8-1-3-3h5-8-------3----3---------3----|
G|----3----3-------3-------3----------------------------2-------2------3-----|
D|-----------------------------------------------------0--------------3------|
A|--1----------------------------------------------------------------1-------|
D|---------------------------------------------------------------------------|


Verse 2:

E|-----0------1--------------------------------------------------------------|
B|----1------3---------------------------------------------------------------|
G|---0------2----------------------------------------------------------------|
D|---------0-----------------------------------------------------------------|
A|--3------------------------------------------------------------------------|
D|---------------------------------------------------------------------------|


************************************

| h  Hammer-on
| p  Pull-off

************************************

↓ Add and view comments below ↓

What do you think about this song and these tabs?

Add your comments, questions, rant or a thumbs up below.

Almost there ...

Sign in to get your own page with links to favourite songs and more. You are just one click away...

Login with Facebook Login with Google