Log in

One click and you are in

Login with Facebook Login with Google

Why sign up and log in

Guitar Tabs Explorer
Misc Computer Games guitar tabs for The last of us part ii - through the valley

The Last Of Us Part Ii - Through The Valley tab by Misc Computer Games

Misc Computer Games guitar tabs for The last of us part ii - through the valley

Guitar tabs with lyrics

The Chords used in this song are A chord diagramG#G# minor (bar), A chord diagramC#C# minor (bar), and A chord diagramD#D# power chord


[Intro]

  A chord diagramG# minorG#m
e|-------------------|------------------|------------------|------------------|
B|--------4----------|------4-----------|-------4----------|-------4----------|
G|----------4--------|--------4---------|---------4--------|---------4--------|
D|------6-----6------|-----6----6-------|-----6-----6------|-----6-----6------|
A|-------------------|------------------|------------------|------------------|
E|--4----------------|-4----------------|-4----------------|-4----------------|

[Verse]

I walk...                             ...shadow...

  A chord diagramG# minorG#m                                     A chord diagramC# minorC#m
e|-------------------|------------------|------------------|-----------------|
B|--------4----------|-------4----------|-------5----------|-------5---------|
G|----------4--------|---------4-4------|---------6--------|---------6-------|
D|------6-----6------|-----6------------|-----6-----6------|-----6-----6-----|
A|-------------------|------------------|-4----------------|-4---------------|
E|--4----------------|-4----------------|------------------|-----------------|


...I, fear no evil...                 ...blind...
  A chord diagramG# minorG#m                                    A chord diagramD#D#
e|-------------------|------------------|------------------|-----------------|
B|--------4----------|-------4----------|------------------|-------5---------|
G|----------4--------|---------4--------|-------8----------|---------6-------|
D|------6-----6------|-----6-----6------|-----8---8--------|-----6-----6-----|
A|-------------------|------------------|-6---------6------|-4---------------|
E|--4----------------|-4----------------|------------------|-----------------|


...mind...                            ...me...
  A chord diagramG# minorG#m                                    A chord diagramC# minorC#m
e|-------------------|------------------|------------------|-----------------|
B|--------4----------|-------4----------|-------5----------|-------5---------|
G|----------4--------|---------4-4------|---------6--------|---------6-------|
D|------6-----6------|-----6------------|-----6-----6------|-----6-----6-----|
A|-------------------|------------------|-4----------------|-4---------------|
E|--4----------------|-4----------------|------------------|-----------------|


...know...         ...enemies...     ...come...
   A chord diagramD#D#                 A chord diagramC# minorC#m                A chord diagramG# minorG#m
e|-------------------|-----------------|-------------------|
B|-------------------|-----5-----------|-------4-----------|
G|-8---8-------------|-6-----6---------|-4-------4---4-----|
D|---8---8-----------|---6-----6-------|-----6-----6-------|
A|-6-------6---------|-4---------------|-------------------|
E|-------------------|-----------------|-4-----------4-----|


**Here, she starts strumming the chords.

**Use occasional finger picking as desired.

A chord diagramG# minorG#m
Surely goodness and mercy will follow me,
        A chord diagramC# minorC#m
all the days of my life,
           A chord diagramG# minorG#m                           A chord diagramD#D#
and I will dwell, on this earth, forever more


Said
A chord diagramG# minorG#m
I walk beside still waters and they
A chord diagramC# minorC#m
restore my soul
              A chord diagramD#D#                      A chord diagramC# minorC#m
- but I can't walk on the path of the right,
            A chord diagramG# minorG#m
because I'm wrong


**more slowly, faded guitar, do not strum final chord to match trailer**

            A chord diagramD#D#                      A chord diagramC# minorC#m
No, I can't walk on the path of the right,
            A chord diagramG# minorG#m

Other versions of The Last Of Us Part Ii - Through The Valley

The last of us part ii - through the valleyChords
The last of us part ii - through the valley acousticChords
The last of us part ii - through the valley acousticTabs

↓ Add and view comments below ↓

What do you think about this song and these tabs?

Add your comments, questions, rant or a thumbs up below.

Almost there ...

Sign in to get your own page with links to favourite songs and more. You are just one click away...

Login with Facebook Login with Google