Log in

One click and you are in

Login with Facebook Login with Google

Why sign up and log in

Guitar Tabs Explorer
Misc Computer Games guitar tabs for The last of us part ii - theme

The Last Of Us Part Ii - Theme tab by Misc Computer Games

Misc Computer Games guitar tabs for The last of us part ii - theme

Guitar tabs with lyrics

Tuning: Standard (E A D G B E)

* TIP: If You Would Like The Score To Sound More Similar To Sanaolalla’s Version,
I Would Recommend Lightly Touching The Low A chord diagramE MajorE And A chord diagramA majorA Strings With The Tip
Of Your Nail When You Let Them Ring Out. (Not Enough To Stop
The Sound, Just Enough To Make A chord diagramA majorA Deep And Gritty Buzzing Noise
That Imitates Santaolalla’s Banjo Guitar.)

(With The First Notes, Play Them Very, Very Fast For However
Long You See Fit And Then Eventually Fade Out Into The Main Melody.)

e|-----------------------------|
B|-----------------------------|
G|--222222222222222222222222---|
D|-----------------------------|
A|-----------------------------|
E|-----------------------------|
e|---------------------------------|
B|----1---------3---------1---1-1--|
G|---2---2-----4---4-----2---------|
D|--2---------0---------2----------|
A|-0---------0-------------------0-|
E|---------------------------------|

e|---------------------------------|
B|----1----------3-----------5-----|
G|---2---2------4----4-------5-----|
D|--2----------0-------------------|
A|-0----------0--------------0-----|
E|---------------------------------|

e|---------------------------------|
B|----1--------3----------1--1-1---|
G|---2---2----4----4-----2---------|
D|--2--------0----------2----------|
A|-0--------0----------0---------0-|
E|---------------------------------|

let The Low A chord diagramE MajorE Ring And Gently Press Your Nail Underneath It:
e|--------------------------------|
B|-------1-------4-----3-1--------|
G|----2---------------------------|
D|--2-----------------------2-----|
A|-------------2------------------|
E|--------------------------0-----|

e|-----------------0-----------------0----|
B|---------------1----1------------1---1--|
G|-0----------2---------2--------2-------2|
D|---------2---------------2---2----------|
A|------0--------------------0------------|
E|----------------------------------------|

e|-------------------------------------------|
B|----------------0---------------0----------|
G|--2-4-2-----0-----0---0-----0----------0-2-|
D|----------2---2-----2-----2---2------2-----|
A|--------2---------------2------------------|
E|-------------------------------------------|

PLAY THE MAIN MELODY AGAIN:


Bridge
e|-----3-333-3-------3--------2/3/2----|
B|---1-------1-----1---------3-------3-|
G|--2--------2---2----------2----------|
D|-0----------------------0------------|
A|-------------------------------------|
E|-------------------------------------|

e|-----1--111--1-----1----0------0----|
B|----3--------3----3----2----2-------|
G|---2---------2---2----2---2---------|
D|--0------------------0--------------|
A|------------------------------------|
E|------------------------------------|

e|--------------------------------|
B|--0-----------------------------|
G|--0----0---0-2------------------|
D|--2---2---2---------------------|
A|--2--2--------------------------|
E|--------------------------------|
End Of Bridge

REPEAT MELODY:

[LAST FEW NOTES CHANGE THE LAST TIME YOU PLAY
THE MELODY]
e|----------------------------------|
B|----4---3-1-----------------------|
G|-----------------0----------------|
D|--------------2----------2--------|
A|-2-----------------------0--------|
E|--------------0-------------------|

[PRESS YOUR NAIL LIGHTLY UNDERNEATH THE A chord diagramA majorA STRING FOR THE FINAL

NOTE AND LET IT RING OUT]

Hope This Made Enough Sense - Its Pretty Hard To Grasp At First, But Alot Of The
Parts Of The Score Are Varied Pluckings Of Simple Chords. Took Me A chord diagramA majorA Long Time To
Figure Out But This Is As Good As I’m Able To Get It. Enjoy :)

↓ Add and view comments below ↓

What do you think about this song and these tabs?

Add your comments, questions, rant or a thumbs up below.

Almost there ...

Sign in to get your own page with links to favourite songs and more. You are just one click away...

Login with Facebook Login with Google