Log in

One click and you are in

Login with Facebook Login with Google

Why sign up and log in

Guitar Tabs Explorer
Misc Computer Games guitar tabs for The last of us part ii - take on me

The Last Of Us Part Ii - Take On Me tab by Misc Computer Games

Misc Computer Games guitar tabs for The last of us part ii - take on me

Guitar tabs

Tuning: Standard (E A D G B E)

The Last of Us Part II Ellie Cover - Take On Me
Intro:
    A chord diagramC# minorC#m               A chord diagramF#F#               A chord diagramBB
    Talking     Away                    I Dont Know What  Im To Say I'll
e|----------------|-------2--------|----------------|------------------------|
B|--5----5--------|----------------|-------4--------|------------------------|
G|----------------|--3-------------|----------------|------------------------|
D|-----6-------6--|-------------4--|-----4-------4--|-----6-----6------------|
A|--4-------4-----|----------------|--2-------2-----|--7-----6---------------|
E|----------------|--2--2----2-----|----------------|------------------------|

    A chord diagramC# minorC#m               A chord diagramF#F#               A chord diagramBB
    Say It Anyway                     Today's Another  Day To Find You
e|----------------|----------------|----------------|------------------------|
B|-------5--------|-------2--------|-------4--------|--5-----5---------------|
G|----------------|--3-------------|----------------|------------------------|
D|-----6-------6--|-------------4--|-----4-------4--|-----6-----6------------|
A|--4-------4-----|----------------|--2-------2-----|--7-----6---------------|
E|----------------|--2--2----2-----|----------------|------------------------|

    A chord diagramC# minorC#m               A chord diagramF#F#               A chord diagramBB
       Shyin' Away                       I'll Be Coming For Your Love, Okay
e|----------------|----------------|----------------|------------------------|
B|-------5--------|-------2--------|-------4--------|-------5----------------|
G|----------------|--3-------------|--4-------------|--4---------------------|
D|-----6-------6--|-------------4--|-----4-------4--|-----6-------6----------|
A|--4-------4-----|----------------|--2-------2-----|--7-------7-------------|
E|----------------|--2--2----2-----|----------------|------------------------|

Chorus:
    A chord diagramBB                 A chord diagramF#F#               A chord diagramG# minorG#m
    Take              On               Me
e|----------------|----------------|----------------|------------------------|
B|-------4--------|-------2--------|-------4--------|--5---7-----------------|
G|----------------|--3-------------|--4-------------|--4---6-----------------|
D|-----4-------4--|-----4-------4--|-----6-------6--|--6---8-----------------|
A|--2-------2-----|----------------|----------------|--7---9-----------------|
E|----------------|--2-------2-----|--4-------4-----|------------------------|

    A chord diagramBB                 A chord diagramF#F#               A chord diagramG# minorG#m
    Take              Me               On
e|----------------|----------------|----------------|------------------------|
B|-------4--------|-------2--------|-------4--------|--5---7-----------------|
G|----------------|--3-------------|--4-------------|--4---6-----------------|
D|-----4-------4--|-----4-------4--|-----6-------6--|--6---8-----------------|
A|--2-------2-----|----------------|----------------|--7---9-----------------|
E|----------------|--2-------2-----|--4-------4-----|------------------------|

    A chord diagramBB                 A chord diagramF#F#               A chord diagramG# minorG#m
    I'll             Be               Gone                 In A chord diagramA majorA Day Or
e|----------------|----------------|----------------|------------------------|
B|-------4--------|-------2--------|-------4--------|--5-----5---------------|
G|----------------|--3-------------|--4-------------|--4-----------4---------|
D|-----4-------4--|-----4-------4--|-----6-------6--|--6---------------------|
A|--2-------2-----|----------------|----------------|--7--7-----7------------|
E|----------------|--2-------2-----|--4-------4-----|------------------------|

    A chord diagramBB                 A chord diagramF#F#               A chord diagramG# minorG#m
    Twoooo
e|----------------|----------------|----------------|------------------------|
B|-------4--------|-------2--------|-------4--------|--5---------------------|
G|----------------|--3-------------|--4-------------|--4---------------------|
D|-----4-------4--|-----4-------4--|-----6-------6--|--6---------------------|
A|--2-------2-----|----------------|----------------|--7---------------------|
E|----------------|--2-------2-----|--4-------4-----|------------------------|


Verse 2:
    A chord diagramC# minorC#m               A chord diagramF#F#               A chord diagramBB
    Needless To Say                I'm Odds And Ends      But I'll Be
e|----------------|----------------|----------------|------------------------|
B|-------5--------|-------2--------|-------4--------|------------------------|
G|----------------|--3-------------|----------------|------------------------|
D|-----6-------6--|-------------4--|-----4-------4--|-----6-----6------------|
A|--4-------4-----|----------------|--2-------2-----|--7-----6---------------|
E|----------------|--2--2----2-----|----------------|------------------------|

    A chord diagramC# minorC#m               A chord diagramF#F#               A chord diagramBB
    Stumblin' Away                     Slowly Learning That Life Is Okay
e|----------------|----------------|----------------|------------------------|
B|-------5--------|-------2--------|-------4--------|------------------------|
G|----------------|--3-------------|----------------|------------------------|
D|-----6-------6--|-------------4--|-----4-------4--|-----6-----6\4----------|
A|--4-------4-----|----------------|--2-------2-----|--7-----6---------------|
E|----------------|--2--2----2-----|----------------|------------------------|

    A chord diagramC# minorC#m               A chord diagramF#F#               A chord diagramBB
       Say After Me                      It's No Better To Be Safe Than Sorry
e|----------------|----------------|----------------|------------------------|
B|-------5--------|-------2--------|-------4--------|-------5----------------|
G|----------------|--3-------------|--4-------------|--4---------------------|
D|-----6-------6--|-------------4--|-----4-------4--|--6---6-----------------|
A|--4-------4-----|----------------|--2-------2-----|--7---------------------|
E|----------------|--2--2----2-----|----------------|------------------------|


Chorus:
    A chord diagramBB                 A chord diagramF#F#               A chord diagramG# minorG#m
    Take             On               Me
e|----------------|----------------|----------------|------------------------|
B|-------4--------|-------2--------|-------4--------|---------7--------------|
G|----------------|--3-------------|--4-------------|---------6--------------|
D|-----4-------4--|-----4-------4--|-----6-------6--|-----6---8--------------|
A|--2-------2-----|----------------|----------------|--7------9--9\----------|
E|----------------|--2-------2-----|--4-------4-----|------------------------|

    A chord diagramBB                 A chord diagramF#F#               A chord diagramG# minorG#m
    Take             Me               On
e|----------------|----------------|----------------|------------------------|
B|-------4--------|-------2--------|-------4--------|---------7--------------|
G|----------------|--3-------------|--4-------------|---------6--------------|
D|-----4-------4--|-----4-------4--|-----6-------6--|-----6---8--------------|
A|--2-------2-----|----------------|----------------|--7------9--------------|
E|----------------|--2-------2-----|--4-------4-----|------------------------|

    A chord diagramBB                 A chord diagramF#F#               A chord diagramG# minorG#m
    I'll             Be           Gone                    In A chord diagramA majorA Day Or
e|----------------|----------------|----------------|------------------------|
B|-------4--------|-------2--------|-------4--------|--------5---------------|
G|----------------|--3-------------|--4-------------|--------------4---------|
D|-----4-------4--|-----4-------4--|-----6-------6--|--6---------------------|
A|--2-------2-----|----------------|----------------|--7--7-----7------------|
E|----------------|--2-------2-----|--4-------4-----|------------------------|

    A chord diagramBB                 A chord diagramF#F#               A chord diagramG# minorG#m
       Toooo                                              In A chord diagramA majorA Day Or
e|----------------|----------------|----------------|------------------------|
B|-------4------0-|-------2--------|-------4--------|--------5---------------|
G|----------------|--3-------------|--4-------------|------------------------|
D|-----4-------4--|-----4-------4--|-----6-------6--|-----6--------6---------|
A|--2-------------|----------------|----------------|--7--------7------------|
E|----------------|--2-------2-----|--4-------4-----|------------------------|


Outro:
    A chord diagramBB                 A chord diagramF#F#               A chord diagramG# minorG#m
    Tooo
e|----------------|----------------|-----------------------------------------|
B|-------4------0-|-------2--------|--4--------------------------------------|
G|----------------|--3-------------|--4--------------------------------------|
D|-----4-------4--|-----4-------4--|--6--------------------------------------|
A|--2-------2-----|----------------|--6--------------------------------------|
E|----------------|--2-------2-----|--4--------------------------------------|


************************************

| \   Slide down

************************************

Other versions of The Last Of Us Part Ii - Take On Me

The Last Of Us Part Ii - Take on MeChords

↓ Add and view comments below ↓

What do you think about this song and these tabs?

Add your comments, questions, rant or a thumbs up below.

Almost there ...

Sign in to get your own page with links to favourite songs and more. You are just one click away...

Login with Facebook Login with Google