Log in

One click and you are in

Login with Facebook Login with Google

Why sign up and log in

Guitar Tabs Explorer
Misc Computer Games guitar tabs for The last of us part ii - joels song - future days

The Last Of Us Part Ii - Joels Song - Future Days tab by Misc Computer Games

Misc Computer Games guitar tabs for The last of us part ii - joels song - future days

Guitar tabs

Tuning: Standard (E A D G B E)

https://www.youtube.com/watch v=K89oZpsXQP0

Tempo 112
CAPO III
  let ring throughout

Intro:

e|----0--1p0-------|-------------------|---------------------------|-------|
B|----1-------3p1--|--1--------1-------|---------1-----------------|-------|
G|----0------------|-----0--2-------2--|----0h2-----2-----2-----0--|-------|
D|----2------------|--------3----------|----3----------------3-----|--2----|
A|----3------------|-------------------|----3----------3-----------|--3----|
E|-----------------|-------------------|---------------------------|-------|

      A chord diagramC majorC                      A chord diagramFF                A chord diagramFF                       A chord diagramC majorC


Verse:

e|-------------------------|------------|-----------------|----------------------|
B|-----------1-------------|------------|-----------------|-------------1--------|
G|--------0-------0-----0--|-------2----|------0h2--------|----------0-----0-----|
D|-----2-------------2-----|----3-------|------3----------|-------2-----------2--|
A|--3----------------------|----3-------|------3----------|----3-----------------|
E|-------------------------|------------|-----------------|----------------------|

    A chord diagramC majorC                           A chord diagramFF            A chord diagramFF                 A chord diagramC majorC
    If       I    ever were to lose you     I'd surely lose    myself

e|-------------------------|------------------|-----------------------|----------------------|
B|-----------1-------------|-----------1------|-----------1-----------|-----------1----------|
G|--------0-------0-----0--|--------2---------|--------2-----2-----2--|--------0-----0-------|
D|-----2-------------2-----|-----3------------|-----3-----------3-----|-----2-----------2----|
A|--3----------------------|--3---------------|--3--------------------|--3-------------------|
E|-------------------------|------------------|-----------------------|----------------------|

    A chord diagramC majorC                         A chord diagramFF                  A chord diagramFF                       A chord diagramC majorC
    Everything       I  have  found    here      I've not found by my -  self


e|-------------------------|-------------------------|------------------------|----------------------|
B|-----------1-------------|-------------1-----------|-----------1------------|-----------1----------|
G|--------0-------0-----0--|----------2-----2-----0--|--------2-------2-------|--------0-----0-------|
D|-----2-------------2-----|-------3-----------3-----|-----3-------------3----|-----2-----------2----|
A|--3----------------------|----3--------------------|--3---------------------|--3-------------------|
E|-------------------------|-------------------------|------------------------|----------------------|

   A chord diagramC majorC                          A chord diagramFF                         A chord diagramFF                         A chord diagramC majorC
   Try       and  sometimes you'll succeed              To make    this man of    me


e|------------------------|----------------------|------------------------|------------------|
B|----------1-------------|-----------1----------|------------1-----------|-----------1------|
G|-----0---------0-----0--|--------2-------2-----|---------2-----2-----2--|--------0---------|
D|--2---------------2-----|-----3-------------3--|----2-------------3-----|-----2------------|
A|--3---------------------|--3-------------------|----3-------------------|--3---------------|
E|------------------------|----------------------|------------------------|------------------|

    A chord diagramC majorC                        A chord diagramFF                        A chord diagramFF                      A chord diagramC majorC
    All     my   stolen mis - sing parts              I've  no need for      anymore


Chorus:

e|----------------|-------------|------------------|------------------------|------------------|
B|----------------|-------------|------------------|---------------------1--|-----1-----1------|
G|----0------0----|----(0)------|--(0)------2------|--(2)--------0----0-----|--0-----0---------|
D|----2------2----|----(2)------|--(2)------3------|--(3)--------2----------|------------------|
A|----3------2----|----(2)------|--(2)------3------|--(3)--------3----------|------------------|
E|-----------0----|----(0)------|--(0)-------------|------------------------|------------------|

      A chord diagramC majorC                                     A chord diagramFF                    A chord diagramC majorC
      'Cause  I believe             And I   believe   'cause  I can see


e|------------------|---------|-------------|----------------------------|-----------1----------|
B|------------------|---------|----1--------|------1--------1------------|--------1-----1-------|
G|----0------0------|--2------|----2--------|------0-----0-------0-------|-----2-----------2----|
D|----2------2------|--2------|----3--------|------2--2-------------2----|--3-------------------|
A|----3------2------|--0------|----3--------|------3---------------------|--3-------------------|
E|-----------0------|---------|-------------|----------------------------|----------------------|

      A chord diagramC majorC      A chord diagramE minorEm        A chord diagramA minorAm          A chord diagramFF               A chord diagramC majorC                        A chord diagramFF
      Our    future    days.       Days of you and me.


Outro:

e|---------|-------------|
B|--1------|----0h1------|
G|---------|----0--------|
D|---------|----2--------|
A|---------|----3--------|
E|---------|-------------|

                A chord diagramC majorC


********************************
p pull off
h hammer on

Other versions of The Last Of Us Part Ii - Joels Song - Future Days

The last of us part ii - joels song - future daysChords

↓ Add and view comments below ↓

What do you think about this song and these tabs?

Add your comments, questions, rant or a thumbs up below.

Almost there ...

Sign in to get your own page with links to favourite songs and more. You are just one click away...

Login with Facebook Login with Google