Log in

One click and you are in

Login with Facebook Login with Google

Why sign up and log in

Guitar Tabs Explorer
Misc Computer Games guitar tabs for The last of us part ii - beyond desolation

The Last Of Us Part Ii - Beyond Desolation tab by Misc Computer Games

Misc Computer Games guitar tabs for The last of us part ii - beyond desolation

Guitar tabs

  • Capo on 3rd
Tuning: Standard (E A D G B E)

Beyond Desolation - Gustavo Santaolalla
(The Last of Us Part II)

Capo 3rd fret

e||----3----0--3----------3-->->->-7-----------------------------------------|
B||----0--0----------0-------------------------------------------------------|
G||-.--0---------------------------------------------------------------------|
D||-.------------------------------------------------------------------------|
A||--------------------------------------------------------------------------|
E||--------------------------------------------------------------------------|

e|--3----0--3----------3-->->->-7--7-----------------------------------------|
B|--0--0----------0----------------8-----------------------------------------|
G|--0------------------------------9-----------------------------------------|
D|---------------------------------9-----------------------------------------|
A|---------------------------------------------------------------------------|
E|---------------------------------------------------------------------------|

e|--2------2--------2-->->->-5------5---3->->-0------------------------------|
B|--1----1------------------------------------0------------------------------|
G|--2--2------2--------------------------------------------------------------|
D|---------------------------------------------------------------------------|
A|---------------------------------------------------------------------------|
E|---------------------------------------------------------------------------|

e|--3----0--3----------3-->->->-7--------------------------------------------|
B|--0--0----------0----------------------------------------------------------|
G|--0------------------------------------------------------------------------|
D|--2------------------------------------------------------------------------|
A|--2------------------------------------------------------------------------|
E|--0------------------------------------------------------------------------|

e|--3----0--3----------3-->->->-7--------------------------------------------|
B|--0--0----------0-------------0--------------------------------------------|
G|--0---------------------------0--------------------------------------------|
D|--2------------------------------------------------------------------------|
A|--2------------------------------------------------------------------------|
E|--0------------------------------------------------------------------------|

e|--2------2--------2-->->->-5------5---3->->-0----------0-------------------|
B|--1----1------------------------------------0------------------------------|
G|--2--2------2--------------------------------------------------------------| (1)
D|--1------------------------------------------------2-----------------------|
A|--0------------------------------------------------------------------------|
E|-----------------------------------------0---------------------------------|

e|------2----------------0-----------------0---------------------------------|
B|------3------3-------3-1------1--------1-0-----0---------------------------|
G|------4----4-------4---2----2--------2---0---------------------------------| (2)
D|---2--4--4-------4-----2--2--------2-----2---------------------------------|
A|------2----------------0-----------------2---------------------------------|
E|------2----------------------------------0---------------------------------|

e|------2----------------0-----------------0------||-------------------------|
B|------3------3-------3-1------1--------1-0------||-------------------------|
G|------4----4-------4---2----2--------2---0----.-||-------------------------|
D|---2--4--4-------4-----2--2--------2-----2----.-||-------------------------|
A|------2----------------0-----------------2------||-------------------------|
E|------2----------------------------------0------||-------------------------|

After you repeat, on your second play you need to play this verse between line (1) & (2) :

e|---0-----------------------|
B|----------0----------------|
G|--------0---0--------------|
D|--------------2------------|
A|----------------2----------|
E|---------------------------|


Chords:

Em*(022003) , Em*, D#dim, Em*, A chord diagramE minorEm (022000)

A chord diagramB minorBm , A chord diagramA minorAm , A chord diagramE minorEm

↓ Add and view comments below ↓

What do you think about this song and these tabs?

Add your comments, questions, rant or a thumbs up below.

Almost there ...

Sign in to get your own page with links to favourite songs and more. You are just one click away...

Login with Facebook Login with Google