Log in

One click and you are in

Login with Facebook Login with Google

Why sign up and log in

Guitar Tabs Explorer
Misc Computer Games guitar tabs for The last of us part ii - allowed to be happy

The Last Of Us Part Ii - Allowed To Be Happy tab by Misc Computer Games

Misc Computer Games guitar tabs for The last of us part ii - allowed to be happy

Guitar tabs

Tuning: Standard (E A D G B E)


Tuning : A chord diagramC#C# A chord diagramA majorA _ _ _ _
(Other Strings Arent Used)
Part 1:

E|----------------------------------------|
B|----------------------------------------|
G|----------------------------------------|
D|----------------------------------------|
A|-----10---------------------09----------|
E|---11---------------------10------------|

E|----------------------------------------|
B|----------------------------------------|
G|----------------------------------------|
D|----------------------------------------|
A|-----10------14-------------------------|
E|---11------13---------------------------|


Part 2:

E|----------------------------------------|
B|----------------------------------------|
G|----------------------------------------|
D|----------------------------------------|
A|-----10-----------------09--------------|
E|---11-----------------10----------------|

E|----------------------------------------|
B|----------------------------------------|
G|----------------------------------------|
D|----------------------------------------|
A|------07------07\09-----07\-06----------|
E|----08---------------------05-----------|


This Is My First Tab,
Please Indicate Any Changes I Should Make
To Make It Easier To Understand, Thanks

E|-----------------------------------


************************************

| \  Slide down

************************************

↓ Add and view comments below ↓

What do you think about this song and these tabs?

Add your comments, questions, rant or a thumbs up below.

Almost there ...

Sign in to get your own page with links to favourite songs and more. You are just one click away...

Login with Facebook Login with Google