Log in

One click and you are in

Login with Facebook Login with Google

Why sign up and log in

Guitar Tabs Explorer
Misc Computer Games bass tabs for Splatoon - splattack

Splatoon - Splattack bass tab by Misc Computer Games

Misc Computer Games bass tabs for Splatoon - splattack

Bass tabs

Tuning: Half-Step Down (Eb Ab Db Gb)


NOTE:
This tab is based on the version in the splatoon 3 trailer:
https://www.youtube.com/watch v=GUYDXVDLmns

the timestamps line up with the trailer
Intro:

  2:17
Gb|-----------------------------------------|
Db|-----------------------------------2-5---|
Ab|-------------------------3---3-4-5-----5-|
Eb|-3h5-------------3-3-5-5---5-------------|


Chorus:

  2:21
Gb|-----------------------------------------------------------|
Db|-----------------------------------------------------------|
Ab|-----3-----------------------------3-----------------------|
Eb|-3h5---5---------3---3-4---4---3h5---5---------3---3-0---0-|

Gb|-----------------------------------------------------------|
Db|-----------------------------------------------------------|
Ab|-----3-----------------------------3-----------------------|
Eb|-3h5---5---------3---3-4---4---3h5---5---------3---3-0---0-|

Gb|-----------------------------------------------------------|
Db|-----------------------------------------------------------|
Ab|-----3-----------------------------3-----------------------|
Eb|-3h5---5---------3---3-4---4---3h5---5---------3---3-0---0-|

Gb|-----------------------------------------------------------|
Db|-----------------------------------------------------------|
Ab|-----3-----------------------------3-----------------------|
Eb|-3h5---5---------3---3-4---4---3h5---5---------3---3-0---0-|


Outro:

  2:42
Gb|-------------------------------------------------------------------------------------------|
Db|--------------------------------------------------2----------------------------------------|
Ab|----------------------3---3-3-----------------3-5---5-3-------------------------3---3-3----|
Eb|-5-5-5--3---3-3-5-5-5---------5-5-5-3---3-3-5-----------5-3-5-5-5-3---3-3-5-5-5---------5\-|


************************************

| h  Hammer-on
| \  Slide down

************************************

Almost there ...

Sign in to get your own page with links to favourite songs and more. You are just one click away...

Login with Facebook Login with Google