Log in

One click and you are in

Login with Facebook Login with Google

Why sign up and log in

Guitar Tabs Explorer
Misc Computer Games guitar tabs for Sea of thieves - stitchers sorrow

Sea Of Thieves - Stitchers Sorrow tab by Misc Computer Games

Misc Computer Games guitar tabs for Sea of thieves - stitchers sorrow

Guitar tabs

Tuning: Standard (E A D G B E)

e|---------------------------------------------------------------------------|
B|---------------------------------------------------------------------------|
G|---------------------------------------------------------------------------|
D|---------6-----4-----6-----------------------------------------------------|
A|---4----------------------4-----6----7----7----6-------4~------------------|
E|---------------------------------------------------------------------------|
    The   De - vil's  Roar  A chord diagramA majorA    land left  un - ex  -  plored

e|---------------------------------------------------------------------------|
B|---------------------------------------------------------------------------|
G|---------------------------------------------------------------------------|
D|---------6-----4-----6--------------------------4--------------------------|
A|---4----------------------4-----6----7----7------------4~------------------|
E|---------------------------------------------------------------------------|
    The   De - vil's  Roar The    O - men  they   ig  - nored

e|---------------------------------------------------------------------------|
B|---------------------------------------------------------------------------|
G|---------------------------------------------------------------------------|
D|---------------------------------------------------------------------------|
A|---4-----------------4----7-----6----4------------------------4------------|
E|---------5-----7---------------------------7----4------7-------------------|
    And  those  who   land u  -  pon  her shores best  write   to

e|---------------------------------------------------------------------------|
B|---------------------------------------------------------------------------|
G|---------------------------------------------------------------------------|
D|---------4-----------------------------------------------------------------|
A|---6-----------7-----6----4-----4~---7~----4----6------6------6------------|
E|---------------------------------------------------------------------------|
   those  who  they    a - dore  just ask   the  souls  who    came

e|---------------------------------------------------------------------------|
B|---------------------------------------------------------------------------|
G|---------------------------------------------------------------------------|
D|---------------------------------------------------------------------------|
A|---7-----6~----------6----4----------------4~--4~--------------------------|
E|---------------7----------------7----4-------------------------------------|
     be-fore    those poor for - got - ten  sai-lors


************************************

| ~  Vibrato

************************************

↓ Add and view comments below ↓

What do you think about this song and these tabs?

Add your comments, questions, rant or a thumbs up below.

Almost there ...

Sign in to get your own page with links to favourite songs and more. You are just one click away...

Login with Facebook Login with Google