Log in

One click and you are in

Login with Facebook Login with Google

Why sign up and log in

Guitar Tabs Explorer
Misc Computer Games guitar tabs for Sea of thieves - becalmed hurdy-gurdy

Sea Of Thieves - Becalmed Hurdy-gurdy tab by Misc Computer Games

Misc Computer Games guitar tabs for Sea of thieves - becalmed hurdy-gurdy

Guitar tabs

Tuning: Standard (E A D G B E)

Difficulty: Novice

e|---------------------------------------------------------------------------|
B|---------------------------------------------------------------------------|
G|-----------1----4-2----1---1----4--2--1----1-------------------------------|
D|---2----4----------------4---------------4------2-------------2------------|
A|-2---------------------------------------------------4-----------2---------|
E|---------------------------------------------------------------------------|

e|---------------------------------------------------------------------------|
B|------------2---------------2----------------------------------------------|
G|----1----4-------4--1-----4----4--1----------------1-2----1----------------|
D|-2-------------------------------------2--4------4--------------2-----2----|
A|-------------------------------------------------------------------4-------|
E|---------------------------------------------------------------------------|

e|---------------------------------------------------------------------------|
B|-----------------------------------------2---------------------------------|
G|----2----1-----------------------1----4-------4--1-----------1--2--1--2-1--|
D|--------------2--4-------2----4------------------------2--4---------------4|
A|----------------------2----------------------------------------------------|
E|---------------------------------------------------------------------------|

e|---------------0-----------------------------------------------------------|
B|------------------4--------------------------------------------------------|
G|-----------1-4-------4--1--4------------1-4-2-1----------------------------|
D|--2---------------------------------------------4--2---------------------2-|
A|------------------------------------------------------4--2-------------2---|
E|---------------------------------------------------------------------------|

e|----------------------------0----0-------------------------0----0--2-4-2-0-|
B|------------------------------------2--------------------------------------|
G|-----1---2-1-------------4-------------4-----2-4--------4------------------|
D|-2-4---------4--2----------------------------------------------------------|
A|---------------------------------------------------------------------------|
E|---------------------------------------------------------------------------|

e|----0----------------------------------------------------------------------|
B|-4---------------2---------------------------------------------------------|
G|-------------1-4----4--1--------------1-4-2-1----------------------------1-|
D|--------------------------4--2----------------4--2---------------2-----4---|
A|----------------------------------------------------4--2-------------------|
E|---------------------------------------------------------------------------|

e|-----------------------0---------------------------------------------------|
B|---------------------------------------------------------------------------|
G|-2-1---------4----1---------1-2-4----4-2-1--------------------1-2-4----4-1-|
D|-----4--2----2----2------------------------4-----2--2----------------------|
A|----------------------------------------------2----------------------------|
E|---------------------------------------------------------------------------|

e|-----------------------------------------------------------|
B|-----------------------------------------------------------|
G|2------------------1-2-4----4-1-2--------------------------|
D|--4-----2-------------------------4-----2--2----2----2----2|  Slowly fade away
A------2-------------------------------2---------------------|
E|-----------------------------------------------------------|

↓ Add and view comments below ↓

What do you think about this song and these tabs?

Add your comments, questions, rant or a thumbs up below.

Almost there ...

Sign in to get your own page with links to favourite songs and more. You are just one click away...

Login with Facebook Login with Google