Log in

One click and you are in

Login with Facebook Login with Google

Why sign up and log in

Guitar Tabs Explorer
Misc Computer Games bass tabs for Sally face - memories and dreams

Sally Face - Memories And Dreams bass tab by Misc Computer Games

Misc Computer Games bass tabs for Sally face - memories and dreams

Bass tabs

Tuning: Standard (E A D G)

Key: G

Difficulty: Novice

G|---------------------------------------------------------------------|
D|---------2-2-2-2-------2---------------------------------------------|
A|—2-2-2-2---------3-3-3---2-2-2—-2-2-2-----------2-2-2----------------|
E|-------------------------------3------3-5-5-5-3-------3-2-2-2-2------|
G|---------------------------------------------------------------------|
D|---------2-2-2-2-------2---------------------------------------------|
A|—2-2-2-2---------3-3-3---2-2-2—-2-2-2-----------2-2-2----------------|
E|-------------------------------3------3-5-5-5-3-------3-2-2-2-2------|


G|---------------------------------------------------------------------|
D|---------2-2-2-2-------2---------------------------------------------|
A|—2-2-2-2---------3-3-3---2-2-2—-2-2-2-----------2-2-2----------------|
E|-------------------------------3------3-5-5-5-3-------3-2-2-2-2------|


G|---------------------------------------------------------------------|
D|---------2-2-2-2-------2---------------------------------------------|
A|—2-2-2-2---------3-3-3---2-2-2—-2-2-2-----------2-2-2----------------|
E|-------------------------------3------3-5-5-5-3-------3-2-2-2-2------|


G|---------------------------------------------------------------------|
D|---------2-2-2-2-------2---------------------------------------------|
A|—2-2-2-2---------3-3-3---2-2-2—-2-2-2-----------2-2-2----------------|
E|-------------------------------3------3-5-5-5-3-------3-2-2-2-2------|


G|---------------------------------------------------------------------|
D|---------2-2-2-2-------2---------------------------------------------|
A|—2-2-2-2---------3-3-3---2-2-2—-2-2-2-----------2-2-2----------------|
E|-------------------------------3------3-5-5-5-3-------3-2-2-2-2------|

Almost there ...

Sign in to get your own page with links to favourite songs and more. You are just one click away...

Login with Facebook Login with Google