Log in

One click and you are in

Login with Facebook Login with Google

Why sign up and log in

Guitar Tabs Explorer
Misc Computer Games guitar tabs for Red dead redemption 2 - see the fire in your eyes

Red Dead Redemption 2 - See The Fire In Your Eyes tab by Misc Computer Games

Misc Computer Games guitar tabs for Red dead redemption 2 - see the fire in your eyes

Guitar tabs with lyrics

Tuning: Standard (E A D G B E)

Difficulty: Novice

There are two versions of this song. You can also use a different picking pattern.
The guitar is very quiet and almost silent sometimes.
The Camp Moving From Grizzlies version: https://www.youtube.com/watch v=QmHnrA4N8dk
The pull off is rather slow, the hammer on is very fast/instantly.

Intro:

    A chord diagramE minorEm          A chord diagramC majorC                       A chord diagramG MajorG           A chord diagramD MajorD
e|-----------|--------0-------0------|-----------|--------2-------2------|
B|-----------|------1---1---1---1----|-----------|--3---3---3---3---3----|
G|-----------|----0-------0-------0--|-----------|----2-------2-------2--|
D|--2--4--5--|-----------------------|-----------|--0--------------------|  only in In-Game version
A|-----------|--3--------------------|-----2--3--|-----------------------|
E|--0--------|-----------------------|--3--------|-----------------------|

    A chord diagramE minorEm            A chord diagramC majorC                   A chord diagramG MajorG                  A chord diagramD MajorD
e|--0--2---3---|--------0-------0--|-----3--2p0--2h3--|--------2-------2--|
B|-------------|------1---1---1----|------------------|--3---3---3---3----|
G|-------------|----0-------0------|---0--------------|----2-------2------|
D|--2-(4)-(5)--|-------------------|------------------|--0----------------|
A|-------------|--3----------------|--------(2)--(3)--|-------------------|
E|-------------|-------------------|--3-(3)-----------|-------------------|

    A chord diagramE minorEm               A chord diagramC majorC                   A chord diagramG MajorG                  A chord diagramD MajorD
e|-----0--2---3---|--------0-------0--|-----3--2p0--2h3--|--------2-------2--|
B|----------------|------1---1---1----|------------------|--3---3---3---3----|
G|---0------------|----0-------0------|---0--------------|----2-------2------|
D|-----2-(4)-(5)--|-------------------|------------------|--0----------------|
A|----------------|--3----------------|--------(2)--(3)--|-------------------|
E|--0-------------|-------------------|--3-(3)-----------|-------------------|

    A chord diagramE minorEm               A chord diagramC majorC                   A chord diagramG MajorG                  A chord diagramD MajorD
e|-----0--2---3---|--7----------------|-----3--2p0--2h3--|--------2-------2--|
B|----------------|--------5-------5--|------------------|--3---3---3---3----|
G|---0------------|------5---5---5----|---0--------------|----2-------2------|
D|-----2-(4)-(5)--|----5-------5------|------------------|--0----------------|
A|----------------|--3----------------|--------(2)--(3)--|-------------------|
E|--0-------------|-------------------|--3-(3)-----------|-------------------|

    A chord diagramE minorEm               A chord diagramC majorC                   A chord diagramG MajorG                  A chord diagramD MajorD
e|-----0--2---3---|--------0-------0--|-----3--2p0--2h3--|--------2-------2--|
B|----------------|------1---1---1----|------------------|--3---3---3---3----|
G|---0------------|----0-------0------|---0--------------|----2-------2------|
D|-----2-(4)-(5)--|-------------------|------------------|--0----------------|
A|----------------|--3----------------|--------(2)--(3)--|-------------------|
E|--0-------------|-------------------|--3-(3)-----------|-------------------|


Verse:

Picking pattern (You can use alternative patterns)
    A chord diagramC majorC                   A chord diagramG MajorG                   A chord diagramC majorC                   A chord diagramG MajorG
e|--------0-------0--|--------3-------3--|--------0-------0--|--------3-------3--|
B|------1---1---1----|------0---0---0----|------1---1---1----|------0---0---0----|
G|----0-------0------|----0-------0------|----0-------0------|----0-------0------|
D|-------------------|-------------------|-------------------|-------------------|
A|--3----------------|-------------------|--3----------------|-------------------|
E|-------------------|--3----------------|-------------------|--3----------------|

    A chord diagramE minorEm      A chord diagramD MajorD           A chord diagramC majorC                   A chord diagramC majorC                   A chord diagramG MajorG
e|--------0-------2--|--------0-------0--|--------0-------0--|--------3-------3--|
B|------0-------3----|------1---1---1----|------1---1---1----|------0---0---0----|
G|----0-------2------|----0-------0------|----0-------0------|----0-------0------|
D|----------0--------|-------------------|-------------------|-------------------|
A|-------------------|--3----------------|--3----------------|-------------------|
E|--0----------------|-------------------|-------------------|--3----------------|

    A chord diagramC majorC                   A chord diagramG MajorG
e|--------0-------0--|--------3-------3--|
B|------1---1---1----|------0---0---0----|
G|----0-------0------|----0-------0------|
D|-------------------|-------------------|
A|--3----------------|-------------------|
E|-------------------|--3----------------|

    A chord diagramB minorBm                  A chord diagramG MajorG                   A chord diagramB minorBm                  A chord diagramG MajorG
e|-------------------|--------3-------3--|-------------------|--------3-------3--|
B|--------3-------3--|------0---0---0----|--------3-------3--|------0---0---0----|
G|------4---4---4----|----0-------0------|------4---4---4----|----0-------0------|
D|----4-------4------|-------------------|----4-------4------|-------------------|
A|--2----------------|-------------------|--2----------------|-------------------|
E|-------------------|--3----------------|-------------------|--3----------------|

    A chord diagramC majorC                   A chord diagramC majorC                   A chord diagramD MajorD
e|--------0-------0--|--------0-------0--|------0-2----------|
B|------1---1---1----|------1---1---1----|--3----------------|
G|----0-------0------|----0-------0------|-------------------|
D|-------------------|-------------------|--0----------------|
A|--3----------------|--3----------------|-------------------|
E|-------------------|-------------------|-------------------|


            A chord diagramC majorC                  A chord diagramG MajorG
The day is done, the time has come
             A chord diagramC majorC                A chord diagramG MajorG
You battled hard, the war is won
              A chord diagramE minorEm         A chord diagramD MajorD          A chord diagramC majorC
You did your worst, you tried your best
          A chord diagramC majorC        A chord diagramG MajorG
Now it's time to rest
          A chord diagramC majorC        A chord diagramG MajorG
Now it's time to rest

A chord diagramB minorBm         A chord diagramG MajorG
~~~humming~~~
A chord diagramB minorBm         A chord diagramG MajorG
~~~humming~~~

A chord diagramC majorC     A chord diagramC majorC     A chord diagramD MajorD


Chorus:
(Same picking/chords as in Intro)

A chord diagramE minorEm        A chord diagramC majorC                    A chord diagramG MajorG
           See the fire in your eyes
A chord diagramD MajorD                   A chord diagramE minorEm
 See the fire in your eyes
A chord diagramC majorC                    A chord diagramG MajorG
 See the fire in your eyes
A chord diagramD MajorD                   A chord diagramE minorEm
 See the fire in your eyes
A chord diagramC majorC                    A chord diagramG MajorG               A chord diagramD MajorD
eyeeeees~~~~


Outro:

A chord diagramE minorEm     A chord diagramC majorC     A chord diagramG MajorG     A chord diagramD MajorD


***********************************

| h  Hammer-on
| p  Pull-off

***********************************

↓ Add and view comments below ↓

What do you think about this song and these tabs?

Add your comments, questions, rant or a thumbs up below.

Almost there ...

Sign in to get your own page with links to favourite songs and more. You are just one click away...

Login with Facebook Login with Google