Log in

One click and you are in

Login with Facebook Login with Google

Why sign up and log in

Guitar Tabs Explorer
Misc Computer Games tabs for Pokemon - burned tower theme

Pokemon - Burned Tower Theme tab - Misc Computer Games

Misc Computer Games tabs for Pokemon - burned tower theme

Guitar tabs

Pokemon
                                          BURNED TOWER THEME
                                        Gold – Silver – Crystal
- 🏷Legend -

|  h = hammer on
|  p = pull off
|  b = full bend
|  * = repeat sign


A chord diagramE MajorE||-------------------------|--7----8--7--------------|------------------------|
A chord diagramBB||-------------------10----|-------------10----------|------------------------|
A chord diagramG+G||--9----7--9--10----------|-------------------10----|--9----7--9--10----7----|
A chord diagramD MajorD||-------------------------|-------------------------|------------------------|
A chord diagramA augmentedA||-------------------------|-------------------------|------------------------|
A chord diagramE MajorE||-------------------------|-------------------------|------------------------|


|-------------------||--------------------------|--7----8--7--------------|
|-------------------||--------------------10----|-------------10----------|
|--9----------------||*--9----7--9--10----------|-------------------10----|
|-------------------||*-------------------------|-------------------------|
|-------------------||--------------------------|-------------------------|
|-------------------||--------------------------|-------------------------|


|------------------------|-------------------|------------------------------|
|------------------------|-------------------|------------------------------|
|--9----7--9--10----7----|--9----------------|------------------------------|
|------------------------|-------------------|------------------------13----|
|------------------------|-------------------|-----12-----12-----12---------|
|------------------------|-------------------|------------------------------|

|------------------------------|------------------------------|
|------------------------------|------------------------------|
|------------------------------|------------------------------|
|-----12-----12-----12---11----|------------------------------|
|------------------------------|-----12-----12-----12---13----|
|------------------------------|------------------------------|


|--------------12--------------|---------------------------|
|-----------13-----------------|---------------------12----|
|------------------------------|--11----9--11--12----------|
|--14p12h14--------------------|---------------------------|
|------------------------10----|---------------------------|
|------------------------------|---------------------------|


                                                           Repeat infinitely
|--9----10--9--------------|--------------------------|---------------------||
|--------------12----------|--------------------------|---------------------||
|--------------------12----|--11----9--11--12----9----|--11----------------*||
|--------------------------|--------------------------|--------------------*||
|--------------------------|--------------------------|---------------------||

Almost there ...

Sign in to get your own page with links to favourite songs and more. You are just one click away...

Login with Facebook Login with Google