Log in

One click and you are in

Login with Facebook Login with Google

Why sign up and log in

Guitar Tabs Explorer
Misc Computer Games bass tabs for Mega man 3 - gemini man

Mega Man 3 - Gemini Man bass tab by Misc Computer Games

Misc Computer Games bass tabs for Mega man 3 - gemini man

Bass tabs

Megaman 3 (NES) - Geminiman...on bass!!!

Gtr I (E A D G) - 'Untitled'

  Q=200
  Gtr I
  Q E E +Q.  E  Q E E +Q.  E  Q E E +Q.  E  Q E E +Q.  E
||-----------------|----------------|----------------|---------------|
||o------5-(5)-----|------6-(6)-----|------5-(5)-----|------6-(6)----|
||o----6-----------|----5-----------|----6-----------|----5----------|
||--8------------8-|-7------------7-|-8------------8-|-7------------7|
 Q E E +Q.  E  Q E E +Q.  E  Q E E +Q.  E  Q E E +Q.  E
|----------------|----------------|----------------|----------------|
|------5-(5)-----|------6-(6)-----|------5-(5)-----|------6-(6)-----|
|----6-----------|----5-----------|----6-----------|----5-----------|
|-8------------8-|-7------------7-|-8------------8-|-7------------7-|


 Q E E +Q.  E  Q E E +Q.  E  Q E E +Q.  E  Q E E +Q.  E
|----------------|----------------|----------------|----------------|
|------5-(5)-----|------6-(6)-----|------5-(5)-----|------6-(6)-----|
|----6-----------|----5-----------|----6-----------|----5-----------|
|-8------------8-|-7------------7-|-8------------8-|-7------------7-|


 Q E E +Q.  E  Q E E +Q.  E  Q E E +Q.  E  Q E E +Q.  E
|----------------|----------------|----------------|----------------|
|------5-(5)-----|------6-(6)-----|------5-(5)-----|------6-(6)-----|
|----6-----------|----5-----------|----6-----------|----5-----------|
|-8------------8-|-7------------7-|-8------------8-|-7------------7-|


 Q E E +Q.  E  Q E E +Q.  E  +H   Q.  E  +H.   Q
|----------------|----------------|----------------|--------------|
|------5-(5)-----|------6-(6)-----|----------------|--------------|
|----6-----------|----5-----------|----------------|--------------|
|-8------------8-|-7------------7-|-(7)----9----10-|-(10)---------|

 Q E E +Q.  E  Q E E +Q.  E  Q E E +Q.  E  Q E E +Q.  E
|----------------|----------------|----------------|----------------|
|------5-(5)-----|------6-(6)-----|------5-(5)-----|------6-(6)-----|
|----6-----------|----5-----------|----6-----------|----5-----------|
|-8------------8-|-7------------7-|-8------------8-|-7------------7-|


 Q E E +Q.  E  Q E E +Q.  E  Q E E +Q.  E  Q E E +Q.  E
|----------------|----------------|----------------|----------------|
|------5-(5)-----|------6-(6)-----|------5-(5)-----|------6-(6)-----|
|----6-----------|----5-----------|----6-----------|----5-----------|
|-8------------8-|-7------------7-|-8------------8-|-7------------7-|


 Q E E +Q.  E  Q E E +Q.  E  Q E E +Q.  E  Q E E +Q.  E
|----------------|----------------|----------------|----------------|
|------5-(5)-----|------6-(6)-----|------5-(5)-----|------6-(6)-----|
|----6-----------|----5-----------|----6-----------|----5-----------|
|-8------------8-|-7------------7-|-8------------8-|-7------------7-|


 Q E E +Q.  E  Q E E +Q.  E  Q E E +Q.  E  Q E E +Q.  E
|----------------|----------------|----------------|----------------|
|------5-(5)-----|------6-(6)-----|------5-(5)-----|------6-(6)-----|
|----6-----------|----5-----------|----6-----------|----5-----------|
|-8------------8-|-7------------7-|-8------------8-|-7------------7-|


 Q E E +Q.  E  Q E E +Q.  E  Q E E +Q.  E  +Q  E E +Q.  E
|------5-(5)-----|------4-(4)-----|----------------|------------------|
|----6-----------|----5-----------|------8-(8)-----|--------8-(8)-----|
|-8------------8-|-7------------7-|----8-----------|------8-----------|
|----------------|----------------|-9------------9-|-(9)------------9-|


 Q E E +Q.  E  +Q  E E +Q.  E  Q E E +Q.  E  +Q  E E +Q.  E
|------5-(5)-----|--------5-(5)-----|------5-(5)-----|--------5-(5)-----|
|----6-----------|------6-----------|----6-----------|------6-----------|
|-8------------8-|-(8)------------8-|-6------------6-|-(6)------------6-|
|----------------|------------------|----------------|------------------|


 Q E E +Q.  E  +Q  E E +Q.  E  +Q  E E +Q.  E  +Q  E E +Q.  E
|----------------|------------------|------------------|------------------|
|------6-(6)-----|--------6-(6)-----|--------6-(6)-----|--------6-(6)-----|
|----8-----------|------8-----------|------8-----------|------8-----------|
|-9------------9-|-(9)------------9-|-(9)------------9-|-(9)------------9-|


 Q E E +Q.  E  Q E E +Q.  E  Q E E +Q.  E  Q E E +Q.  E
|----------------|----------------|----------------|-----------------||
|------5-(5)-----|------6-(6)-----|------5-(5)-----|------6-(6)-----o||
|----6-----------|----5-----------|----6-----------|----5-----------o||
|-8------------8-|-7------------7-|-8------------8-|-7------------7--||

Almost there ...

Sign in to get your own page with links to favourite songs and more. You are just one click away...

Login with Facebook Login with Google