Log in

One click and you are in

Login with Facebook Login with Google

Why sign up and log in

Guitar Tabs Explorer
Misc Computer Games bass tabs for Little nightmares ii - music box

Little Nightmares Ii - Music Box bass tab by Misc Computer Games

Misc Computer Games bass tabs for Little nightmares ii - music box

Bass tabs

Tuning: Standard (E A D G)

G|-----------------------------------------------------------------------------------|
D|-----------------------------------------------------------------------------------|
A|---------------------------------------12-10-8---12-10-8---10-8-7---10-8-7---13-12-|
E|-11-10-8---11-10-8---10-8-7---10-8-7-----------------------------------------------|


G|-----------------------------------------------------------------------------------|
D|-----------------------------------------------------------------------------------|
A|7---13-12-7---12---12-10---10-8---8-7---7-------------7-8-7-----------7-8-7---7----|
E|----------------7-2-----7-2----7-2---7-2--8-7-8-------------8-7-8-7-8-------7---2-7|

G|-----------------------------------------------------------------------------------|
D|-----------------------------------------------------------------------------------|
A|---------------10-12-10-----------------10-12-10-------12----13-12-10-12-9---13-12-|
E|-2---11-10-11----------11---10-11-10-11----------11-10--------------------8--------|

G|-----------------------------------------------------------------------------------|
D|-----------------------------------------------------------------------------------|
A|10-12-10-8-7---12---13-10---12-13---10-16---8--------------------------------------|
E|-------------8---7-2-----7-2-----7-2-----7-2---------------------------------------|

Almost there ...

Sign in to get your own page with links to favourite songs and more. You are just one click away...

Login with Facebook Login with Google