Guitar Tabs Explorer
Misc Computer Games guitar tabs for Legend of zelda ocarina of time - song of storms (ukulele)

Legend Of Zelda Ocarina Of Time - Song Of Storms (ukulele) tab


5 / 5 [1 vote]


Apollonia93Author: Apollonia93

Legend Of Zelda Ocarina Of Time - Song Of Storms (ukulele) tab by Misc Computer Games

My solo arrangement for re-entrant ukulele.

Guitar tabs

Print
  • Tuning: Standard tuning
This is my solo arrangement for Song of Storms, for a ukulele that is tuned re-entrant
with a high G chord diagramGG string. The score was written by Koji Kondo for the 1998 Nintendo game
The Legend Of Zelda: Ocarina Of Time. The original soundtrack:
https://www.youtube.com/watch?v=UtgHZaq0EGs

If you would like to see my video lesson here: https://www.youtube.com/watch?v=fFxo58wLddQ


Rhythm section (0:01, ad infinitum)

     Dm chord diagramDmDm          Em chord diagramEmEm     F chord diagramFF            Em chord diagramEmEm    Dm chord diagramDmDm          Em chord diagramEmEm     F chord diagramFF            Em chord diagramEmEm
A|---0---0-------2------3---3--------2-|---0---0-------2------3---3--------2-|
E|---1---1-----3------1------------3---|---1---1-----3------1------------3---|
C| chord diagramC|C|-2---------4-------------------4-----|-2---------4-------------------4-----|
g|---------------0------2---2--------0-|---------------0------2---2--------0-|

     Dm chord diagramDmDm          Em chord diagramEmEm     F chord diagramFF            Em chord diagramEmEm    A#m chord diagramA#mA#m         Dm7 chord diagramDm7Dm7    A#m chord diagramA#mA#m         A chord diagramAA
A|---0---0-------2------3---3--------2-|---1---1-------0------1---1-------0-|
E|---1---1-----3------1------------3---|---1---1-----1--------1---1-----0---|
C| chord diagramC|C|-2---------4-------------------4-----|-2---------0--------2---------1---1-|
g|---------------0------2---2--------0-|---------------2--------------------|

       Dm chord diagramDmDm          Em chord diagramEmEm     F chord diagramFF            Em chord diagramEmEm     A#m chord diagramA#mA#m         A chord diagramAA
A|-----0---0-------2------3---3--------2-|----1---1-------0--0-|
E|-----1---1-----3------1------------3---|----1---1-----0------|
C| chord diagramC|C|-2-----------4-------------------4-----|-2----------1---1----|
g|-----------------0------2---2--------0-|---------------------|


Lead section (begins at 0:08)

       D chord diagramDD        D chord diagramDD            E chord diagramEE       Dm chord diagramDmDm      D chord diagramDD   Dm chord diagramDmDm
A|-----5--------5-|-7--8-7-8-7-3-0-|-0-------0-|-0---------|
E|---1--------1---|----------0-----|-1---1-3---|-1---1-3-0-|
C| chord diagramC|C|-2---2----2---2-|----------0-----|-2-2-----2-|-2-2-----0-|
g|----------------|----------------|-----------|-----------|

       D chord diagramDD       D chord diagramDD            E chord diagramEE       Dm chord diagramDmDm      D chord diagramDD   Dm chord diagramDmDm
A|-----5-|-----5-|-7--8-7-8-7-3-0-|-0-------0-|-0----|
E|---1---|---1---|----------0-----|-1---1-3---|-1----|
C| chord diagramC|C|-2---2-|-2---2-|----------0-----|-2-2-----2-|-2--2-|
g|-------|-------|----------------|-----------|------|

Comment this song and these guitar tabs

Do you have corrections, comments on the guitar tabs, thoughts about the song or a message to the author? Write them below.