Log in

One click and you are in

Login with Facebook Login with Google

Why sign up and log in

Guitar Tabs Explorer
Misc Computer Games bass tabs for Legend of zelda - mikau and japas

Legend Of Zelda - Mikau And Japas bass tab - Misc Computer Games

Misc Computer Games bass tabs for Legend of zelda - mikau and japas

Bass tabs

------------------------------------------------------------------
			   Mikau and Japas Jam - Majora's Mask
------------------------------------------------------------------

Tabbed By : Billy M
Tuning: Standard

This is the part Japas plays. Call it Japas A1 and A2.

G|------2--2----------------------4--4--2----------------|
D|-(0)-------3--0~-------------(0)--------3~-------------|
A|-----------------(Maikau A1)---------------(Maikau A2)-|x2
E|-------------------------------------------------------|

Then Maikau's part on bass would be, Mikau A1 and A2:

G|-----2----------------2--4----------------------|
D|-0-3---0------------3------3--------------------|
A|----------(Japas A1)----------(Japas A2)--------|x2
E|------------------------------------------------|

Japas B1 and B2:

G|--4--4---------------------6--6--4-------------------|
D|-------5--2~---(Maikau B1)----------5~--(Maikau B2)--|
A|-----------------------------------------------------|x1
E|-----------------------------------------------------|

Maikau B1 and B2:

G|-----4-------------------4-6----------------|
D|-2-5---2---(Japas B1)---5-----5-------------|
A|--------------------------------------------|x1
E|--------------------------------------------|


Ending:

G|--------------------|
D|--5-2~--------------|
A|--------------------|
E|--------------------|

The order goes:

*Japas A1, Maikau A1, Japas A2, Maikau A2* (*x2*)
Japas B1, Maikau B1, Japas B2, Maikau B2, Ending


| ~ let ring
| / slide up
| \ slide down
| h hammer-on
| p pull-off
| + harmonic
| x Mute note

Almost there ...

Sign in to get your own page with links to favourite songs and more. You are just one click away...

Login with Facebook Login with Google