Log in

One click and you are in

Login with Facebook Login with Google

Why sign up and log in

Guitar Tabs Explorer
Misc Computer Games bass tabs for Left 4 dead 2 - the monsters without

Left 4 Dead 2 - The Monsters Without bass tab - Misc Computer Games

Misc Computer Games bass tabs for Left 4 dead 2 - the monsters without

Bass tabs

Tuning: Standard (E A D G)


The bass follows the lead guitar. The part starts at about 0:10. Play the Main twice,
Variation once, Main one time, then Variation twice again to finish it.

Main:

G|-------------------------------------|
D|-------------------------------------|
A|------5-2-3-2-------0-2-3-2----------|
E|--0-0--------------------------5b----|

Variation:

G|-------------------------------------|
D|-------------------------------------|
A|----5--2-3-2--0-5-6-5---7b--5--------|
E|--0----------------------------------|


*************************

| b  Bend

*************************

Almost there ...

Sign in to get your own page with links to favourite songs and more. You are just one click away...

Login with Facebook Login with Google