Log in

One click and you are in

Login with Facebook Login with Google

Why sign up and log in

Guitar Tabs Explorer
Misc Computer Games bass tabs for Jet set radio - humming the bassline

Jet Set Radio - Humming The Bassline bass tab by Misc Computer Games

Misc Computer Games bass tabs for Jet set radio - humming the bassline

Bass tabs

Tuning: Drop D (D A D G)


intro:

G|---------------------------------------------------------------------------|
D|--------0----------------5-------------------------------------------------|
A|---------------------------------------------------------------------------|
D|---2-----------6--7--------------------------------------------------------|

G|---------------------------------------------------------------------------|
D|--------0------------------------------------------------------------------|
A|---------------------------------------------------------------------------|
D|---2-----------5--7------0-------------------------------------------------|

Verse 1:

G|---------------------------------------------------------------------------|
D|-- 5----0----1-------------5-----------------------------------------------|
A|------------------1--2-------4-5-------------------------------------------|
D|---------------------------------------------------------------------------|

G|---------------------------------------------------------------------------|
D|---5----0----1-------------5-----------------------------------------------|
A|------------------1--2-------4-5-------------------------------------------|
D|---------------------------------------------------------------------------|


side note , ive never actually played this game before.
I just really like the soundtrack

:)

Almost there ...

Sign in to get your own page with links to favourite songs and more. You are just one click away...

Login with Facebook Login with Google