Log in

One click and you are in

Login with Facebook Login with Google

Why sign up and log in

Guitar Tabs Explorer
Misc Computer Games tabs for Halo 3 unforgotten

Halo 3 Unforgotten tab by Misc Computer Games

Misc Computer Games tabs for Halo 3 unforgotten

Guitar tabs

Unforgotten Formerly known as Never Forget in Halo 2:


e|------------------|-----------------|---------|---------------------------|
b|------------------|---------0-------|---------|--0----2----3--------------|
g|----------2-------|---------------2-|---------|-------------------2-------|
A chord diagramD MajorD|-0--------------2-|--0--------------|--2------|---------------------------|
A chord diagramA augmentedA|----------------0-|-----------------|--0------|--2------------------------|
A chord diagramE MajorE|-2--------3-------|--2------3-------|---------|------------3--------------|
e|-0----------------|-----------------|---------|------|--------------------|
b|--------3------2--|--0--------------|---0-----|------|-----0--------------|
g|------------------|----------2------|---------|------|--------------------|
A chord diagramD MajorD|--------0---------|-----------------|---2-----|--4---|--------------------|
A chord diagramA augmentedA|-0----------------|----------0------|---------|--4---|-----7--------------|
A chord diagramE MajorE|------------------|--3--------------|---0-----|------|-----0--------------|

e|----------|-------|-----------------|----------------|--------------------|
b|----------|--0----|---------3-------|--------0-------|--------------------|
g|----------|-------|-----------------|----------------|--------2-----------|
A chord diagramD MajorD|-4--------|-------|------4----------|-----0----------|-----2--------------|
A chord diagramA augmentedA|-4--------|-------|--2--------------|----------------|--0-----------------|
A chord diagramE MajorE|----------|--0----|-----------------|--3-------------|--------------------|

e|---------------0--|-----------------|----------------|--------------------|
b|---------0-2------|--3------3---3---|--2-----0-----0-|--------------------|
g|------2-----------|-----------------|----------------|--2----2------------|
A chord diagramD MajorD|----2-------------|-----4---4-------|-----0--0---0---|-----2--------------|
A chord diagramA augmentedA|--0---------------|--2--------------|----------------|--0-----------------|
A chord diagramE MajorE|------------------|-----------------|--3-------------|--------------------|

e|------------------|-----------------|----------------|---------------0----|---------------------|
b|--------3---------|--------0--------|----------------|---------0--2-------|--3------2--3--2--3--|
g|------------------|--2-----2--------|--------2-------|--------------------|---------------------|
A chord diagramD MajorD|-----4------------|-----0-----------|--2--2-------2--|------2-------------|------4--4-----------|
A chord diagramA augmentedA|--2---------------|-----------------|--0-------------|--0-----------------|--2------------------|
A chord diagramE MajorE|------------------|--3--------------|----------------|--------------------|---------------------|

e|------------------|-----------------|----------------|--------------------|---------------------|
b|--2--------0----0-|--------------0--|--2---------0-2-|--------3--2--2-----|--3-----0------------|
g|--------2----2--0-|--2-----2--------|---------2------|--4-----------4-----|----------2--0-------|
A chord diagramD MajorD|-----0--0---------|-----2-----------|------2---------|-----4-----------4--|-----0----------0----|
A chord diagramA augmentedA|------------------|--0--------------|----------------|--2-----------------|---------------------|
A chord diagramE MajorE|--3---------------|-----------------|----------------|--------------------|--3------------------|

e|--0----------0--0-|-----------------|----------------|--------------0--5--|---------------------|
b|----------0--2----|--3--------3--2--|--0-----------0-|--------2--3--------|--0--------0---------|
g|-------2----------|--------2-------2|--------0--2----|--2-----2-----------|---------------------|
A chord diagramD MajorD|----2-------------|-----4-----------|-----0----------|-----2--------------|--------2------------|
A chord diagramA augmentedA|--0---------------|--5--------------|----------------|--0-----------------|-----2---------------|
A chord diagramE MajorE|------------------|-----------------|--3-------------|--------------------|--0------------------|

e|------------------|-----------------|----------------|--------------------|---------------------|
b|------------------|-----------------|----------------|--0--------0--------|---------------------|
g|------------------|--------4--------|--------4-------|--------------------|---------------------|
A chord diagramD MajorD|--------2---------|--4--4-----------|--4--4----------|--------2-----------|--------2------------|
A chord diagramA augmentedA|-----2------------|-----------------|--5-------------|-----2--------------|-----2---------------|
A chord diagramE MajorE|--0---------------|--7--------------|--7-------------|--0-----------------|--0------------------|

e|------------------|-----------------|----------------|-------7------------|
b|------------------|-----------------|--0-------------|--------------------|
g|--------4---------|--------4--------|----------------|--------------------|
A chord diagramD MajorD|--4--4------------|--4--4-----------|--------2-------|----0---------------|
A chord diagramA augmentedA|------------------|--5--------------|-----2----------|--------------------|
A chord diagramE MajorE|--7---------------|--7--------------|--0-------------|--7-----------------|


-------------------------------------------------------------------------------------
Link to the song here
https://www.youtube.com/watch v=B-X5Hrc0dRU

Almost there ...

Sign in to get your own page with links to favourite songs and more. You are just one click away...

Login with Facebook Login with Google