Log in

One click and you are in

Login with Facebook Login with Google

Why sign up and log in

Guitar Tabs Explorer
Misc Computer Games bass tabs for Dragon quest xi - overture

Dragon Quest Xi - Overture bass tab by Misc Computer Games

Misc Computer Games bass tabs for Dragon quest xi - overture

Bass tabs

Tuning: Standard (E A D G)


Optional intro - each part is done twice, bass only comes in second time each time.:

G|-------------------------------------------------|
D|14--14-14-12-12-12-10-------15--15-15-14-14-14-12|
A|-------------------------------------------------|
E|-------------------------------------------------|

Intro:

G|---------------------------------5---------------------------------------|
D|-----------------------------5-7---7-5-----------------------------------|
A|7--7-7-5-5-5---5-7-8-7-5-7-8-----------8-7-5--5-5-7--7-7-7---7-5---/10-10|
E|-------------8---------------------------------------------8-------------|


Verse x2:

G|------------------------------------------------------9--7-------|
D|10--9--8--7--------------10---------10------------10--------10--9|
A|-------------7---7-8---8-----10------------7--10-----------------|
E|---------------------------------8------8------------------------|

G|------------------------7--------------------------|
D|7-6-7-9-10-9-7-------7-------------------------9---|
A|---------------10-9---------9-10-9-10-12-10-12---10|
E|---------------------------------------------------|

G|------9-----------------------------7------------------------10-9------------|
D|---9------6-7-6-7-9-10-9-7-------7-------------------9-10-12-------11-------7|
A|7--------------------------10-9---------9-10-9-10-12-------------------12----|
E|-----------------------------------------------------------------------------|

G|----------------------9-----5--5-----|
D|------5-7-5--------7-----5------5----|
A|5-7-8-------8-7-5-----------------7--|
E|------------------------------------8|

End:

G|------------------------------------|
D|---------------------5----5---------|
A|-/8--8--7--5-----------------------3|
E|------------------------------------|


************************************

| / Slide up

************************************

Almost there ...

Sign in to get your own page with links to favourite songs and more. You are just one click away...

Login with Facebook Login with Google