Log in

One click and you are in

Login with Facebook Login with Google

Why sign up and log in

Guitar Tabs Explorer
Misc Computer Games bass tabs for Doom - at dooms gate

Doom - At Dooms Gate bass tab by Misc Computer Games

Misc Computer Games bass tabs for Doom - at dooms gate

Bass tabs

Tuning: DADG
Suggested Style/Effects:LOW TONE with HIGH DISTORTION and GAIN


[Intro]

G|----------------------------------|--------------------------------|
D|----------------------------------|--------------------------------|
A|----------------------------------|--------------------------------|x3
D|3-p0-----3-p0-----0-0-----0-0-----|3-p0-----3-p0----0-h3-h5-p0-h7--|

On 3rd Time:

G|----------------------------------|----------------------------------------|
D|----------------------------------|----------------------------------------|
A|----------------------------------|----------------------------------------|
D|3-p0-----3-p0-----0-0-----0-0-----|3-p0-----3-p0----0-h3-h5-p0-h7~~~~~~~~~~|


[Melody/Head]

G|---------------------------------|---------------------------------|
D|---------------------------------|---------------------------------|
A|---------------------------------|---------------------------------|x2
D|0-0h12p0-0h10p0-0h8p0-0h6p0h7/8\7|0-0h12p0-0h10p0-0h8p0-0h6~~~~~~~~|


[Repeated Intro]

G|----------------------------------|--------------------------------|
D|----------------------------------|--------------------------------|
A|----------------------------------|--------------------------------|x2
D|3-p0-----3-p0-----0-0-----0-0-----|3-p0-----3-p0----0-h3-h5-p0-h7--|


[Return to Head]

G|---------------------------------|---------------------------------|
D|---------------------------------|-----------------------{6}-------|
A|---------------------------------|-----------------------(6)-------|x2
D|0-0h12p0-0h10p0-0h8p0-0h6p0h7/8\7|0-0h12p0-0h10p0-0h8p0-0h6~~~~~~~~|



************************************

| h    Hammer-on
| p    Pull-off
| ~    Vibrato
| /    Slide up
| \    Slide down
| (n)  Ghost note
| (6)  Optional Power Chord, held out
| {6}  Optional 8 Chord for 1-5-8 Triad

Almost there ...

Sign in to get your own page with links to favourite songs and more. You are just one click away...

Login with Facebook Login with Google