Log in

One click and you are in

Login with Facebook Login with Google

Why sign up and log in

Guitar Tabs Explorer
Misc Computer Games tabs for Disneys hecules action game - heros gauntlet

Disneys Hecules Action Game - Heros Gauntlet tab by Misc Computer Games

Misc Computer Games tabs for Disneys hecules action game - heros gauntlet

Guitar tabs

Disney's Hercules Action Game (1997) - Hero's Gauntlet

Thought id tab it because it's fun to play (and mostly because it's nostalgic haha)
Iv'e tried to label the part and the instrument that's being mimicked and make it so
you're playing something at all times so it is pretty hard to follow once you've
listened to it a few times...
There are also 4 key changes which I will label
Good Luck
Rule number 95, Kid. Concentrate!!!


A chord diagramC majorC Major
Trumpets                              RKB
|---------------------------------------------------7~---5-7~~-7-8~~7~~5--------------------|
|--------------5~~----5~~5-6~~5~~---------5-88-5-8~~--8~~---------------8-------------------|
|------55---5~~---5~-7-----------555--(5)---------------------------------------------------|
|-55-7----7---------------------------------------------------------------------------------|
|-------------------------------------------------------------------------------------------|
|-------------------------------------------------------------------------------------------|
Piano
|------------------12--------------12-10---10-10-12-10~~--------------10~~~ 3---------------|
|----10-1313-10-13----13~~10-13-10------13--------------13~~~10-13-10-------3---------------|
|-12------------------------------------------------------------------------4---------------|
|---------------------------------------------------------------------------5---------------|
|---------------------------------------------------------------------------5---------------|
|---------------------------------------------------------------------------3---------------|

|-66-5-3-1-0--------0-5-8-5-8~~-------------------------------------------------------------|
|-88-6-5-3-1-------------------6--5---------------------------------------------------------|
|-88-7-5-3-0--5-7-8------------7--5---------------------------------------------------------|
|------------------------------7--5---------------------------------------------------------|
|------------------------------5--3---------------------------------------------------------|
|-------------------------------------------------------------------------------------------|

A chord diagramD MajorD Major
Trumpets?                               RKB
|-------------------------------------..101010-12~~9~~-----12~14~~12~-----------------------|
|--------------7~~----7~~7-8~~7~~---------------------10~~~----------/13-12-10~~------------|
|------77---7~~---7~-9-----------777..------------------------------------------------------|
|-77-9----9---------------------------------------------------------------------------------|
|-------------------------------------------------------------------------------------------|
|-------------------------------------------------------------------------------------------|
Piccolo?                                                 RKB
|---------------14-------------------------14-12------------14----12~~~~--------------------|
|-12-1515-12-15----15~~~-12-15-12--4-4-5~~~------15~~~~~-15----15---------------------------|
|----------------------------------4-4-5~~~-------------------------------------------------|
|----------------------------------6-6-7~~~-------------------------------------------------|
|----------------------------------5-5-7~~~-------------------------------------------------|
|----------------------------------4-4-5~~~-------------------------------------------------|
Piano
|-------10--7--5--9---10------------17-----------------------17-19~~------------------------|
|-------10--8--7--11--11---------------181715-- 15~~~~~15-19--------19p17p15----------------|
|-6-7-9-11--9--7--9---12----11-12~~---------------------------------------------------------|
|-------------------------9-----------------------------------------------------------------|
|-------------------------------------------------------------------------------------------|
|-------------------------------------------------------------------------------------------|

|-------------------------------------------------------------------------------------------|
|-8-7--------5---8~~7--------5---8~~7--------5~~~7-5------5567---3------3-------------------|
|-----7-4-7~----------7-4-7~----------7-4-7~--------7~~~~~----24------24--------------------|
|------------------------------------------------------------------234----------------------|
|-------------------------------------------------------------------------------------------|
|-------------------------------------------------------------------------------------------|


A chord diagramEb MajorEb Major
RKB
|-----------------------------------------------------10~~--8-10~~~10-11~~10~~-8------------|
|----------------8~~-----8~-8~9~~8~~-----8-1111-8-11~~----11--------------------11~---------|
|-------88----8~~---8~10~-----------88~~----------------------------------------------------|
|-88-10----10-------------------------------------------------------------------------------|
|-------------------------------------------------------------------------------------------|
|-------------------------------------------------------------------------------------------|
Trumpets                                              RKB
|---------------------------------------------------------11---/13~~10----------------------|
|-----------------------------8~-----------------------13----13-------13~13---11~~----------|
|-------88----8~~/12~8~~---8----10-810~~---/12-10-8~~----------------------10---------------|
|-88-10----10------------10-10-----------10-------------------------------------------------|
|-------------------------------------------------------------------------------------------|
|-------------------------------------------------------------------------------------------|
Piano                        Mix of flute ,trumpet,RKB
|---------11--8---6--10--11----------------15-13-11--------------6/8~~~---------------------|
|---------11--9---8--12--13-------------11---------------------8----------------------------|
|------7--12--10--8--10--12----12-13~~~~-------------88--8~~-8------------------------------|
|-8-10----------------------10---------------------88--88-------------5-3-------------------|
|------------------------------------------------------------------------6-3~~~~------------|
|-------------------------------------------------------------------------------------------|


|---------------------15------8-------------------------------------------------------------|
|---9-8--------6~~--------11--8-------------------------------------------------------------|
|-5-----8-5-8~~---8~~-12--12--8-------------------------------------------------------------|
|---------------------13--13----------------------------------------------------------------|
|-------------------------------------------------------------------------------------------|
|-------------------------------------------------------------------------------------------|


A chord diagramFF Major
           Trumpet/Bells                                           Trumpet
|--------------------------------------------------12-13~~12~~-----10------------------------|
|-----------------10-11~~10~~----------------13-13------------13~~---13-10-------------------|
|-----------10-10------------10~~------------------------------------------12-10-------------|
|--------------------------------------------------------------------------------12----------|
|----------------------------------C Chord---------------------------------------------------|
|-F chord------------------------------------------------------------------------------------|

                                   Piano                           Trumpet
|------------------------------------------10-10-10~~~-------------121315~151718~~-----------|
|--------------------10~-------------------10-10-11~~~----10-11------------------------------|
|-10~~/14~10~~---10-----1210-12~~~-14-12---10-10-10~~~-12-------12---------------------------|
|--------------12--12------------------------------------------------------------------------|
|--------------------------------------------------------------------------------------------|
|--------------------------------------------------------------------------------------------|
 Piano/RKB                              Muted trumpet?
|-----------13--10--8---12----10~~--8------------------8/10~~--------------------------------|
|-----------13--11--10--14----10~~--8---10-8---------10------10p8----------------------------|
|----10-12--14--12--10--12--10~~~---10-------10-10~~~------------10~~------------------------|
|-10--------------------------------8--------------------------------------------------------|
|--------------------------------------------------------------------------------------------|
|--------------------------------------------------------------------------------------------|

Trumpet ending
|--------------------------------------------------------------------------------------------|
|-11-10----------8---11~~10---------8---11~~10---------8~~~10~~8--------88910--6-------6-----|
|-------10-7-10~------------10-7-10~-----------10-7-10~---------10~~~~~------57------57------|
|---------------------------------------------------------------------------------567--------|
|--------------------------------------------------------------------------------------------|
|--------------------------------------------------------------------------------------------|

Almost there ...

Sign in to get your own page with links to favourite songs and more. You are just one click away...

Login with Facebook Login with Google