Search tabs and chords

Search for song, artist or band

Log in

One click and you are in

Login with Facebook Login with Google

Why sign up and log in

Guitar Tabs Explorer
Misc Computer Games guitar tabs for Dark souls 3 - main theme acoustic

Dark Souls 3 - Main Theme Acoustic tab by Misc Computer Games

Misc Computer Games guitar tabs for Dark souls 3 - main theme acoustic

Intro

Tuning: Standard (E chord diagramEE A chord diagramAA D chord diagramDD G chord diagramGG B chord diagramBB E chord diagramEE)

Key: E chord diagramEE

Difficulty: Advanced

e|-0-0-7-3-5-7-2-5-3-0-0-0-0-0-0-------------0-0-0-0-0-0---------|
B|-0-0-5-5-5---5-5-5-0-0-0-0-0-0-0-0-0-0-0-0-0-0-0-0-0-0---------|
G|---------4-----4-4-------------------------0-----2-------------|
D|-------------------2-2-2-2-2-2-4-4-4-4-4-4-2-------------------|
A|---------------------------------------------------------------|
E|-0-0-0---0-----0---0-----------------------0-----0-------------|

e|-0-0-0-0-0-0---------------------------------------------------|
B|-1-1-1-0-0-0-0-0-0-1-1-1-3-3-3-3-3-3-1-1-1-0-0-0-0-0-0---------|
G|---------------------------------------------------------------|
D|-------------2-2-2-2-2-2-2-2-2-2-2-2-1-1-1-1-1-1-1-1-1---------|
A|---------------------------------------------------------------|
E|-0-----------0-------------------------------------------------|

e|-0-0-0-0-0-0-0-0-0-0-0-0---0-0-0-2-----3-----5-----------------|
B|-0-0-0-0-0-0-0-0-0-0-0-0---0-0-0-0-0-0-5-5-5-5-----------------|
G|-0-0-0-0-0-0-0-0-0-0-0-0---0-0-0-0-0-0-0-0-0-0-----------------|
D|---------------------------------------------------------------|
A|---------------------------------------------------------------|
E|-0-----------0-------------0-----0-----0-----0-----------------|

e|---0-0-0-0-0-0-0-0-0-0-0-0-0-0-0-0-0-0-0-0---------------------|
B|-0-0-0-0-0-0-------------------------------4-4-4---------------|
G|-------------3-3-3-3-3-3-2-2-2-2-2-2-2-2-2-2-2-2---------------|
D|-2-2-2-2-2-2-0-0-0-0-0-0---------------------------------------|
A|-------------------------4-4-4-4-4-4-3-3-3-2-2-2---------------|
E|---------------------------------------------------------------|

e|-0-------------------------------------------------------------|
B|-0-------------------------------------------------------------|
G|---------------------------------------------------------------|
D|---------------------------------------------------------------|
A|---------------------------------------------------------------|
E|-0-0-0-0-------------------------------------------------------|

Almost there ...

Sign in to get your own page with links to favourite songs and more. You are just one click away...

Login with Facebook Login with Google