Log in

One click and you are in

Login with Facebook Login with Google

Why sign up and log in

Guitar Tabs Explorer
Misc Computer Games bass tabs for Call of duty - juggernog

Call Of Duty - Juggernog bass tab by Misc Computer Games

Misc Computer Games bass tabs for Call of duty - juggernog

Bass tabs

[Intro]
G|-----------------|
D|-----------------|
A|8----88-8-7-5-3--|
E|--8--------------| X2

[Main][verse 1|
G|10-9-7-5-------7--------7-6-5---------------|
D|---------5-7-5----5-7-5-------7-------------|
A|---------------------------------3-3-5-5-3--|
E|--------------------------------------------|

[Main][verse 2|
G|10-9-7-5-------7--9-8-7-5----------|
D|---------5-7-5------------5-7-3----|
A|-----------------------------------|x2
E|--------------------------------3--|

I translated this from the sheet music to the bass so if it sounds wrong idk
what to tell you. Check your tune or go listen to the song again.

Lyrics:
When you need some help to get by, something to make you feel strong.
Reach for Juggernog tonight, sugar seduction delight!
When you need to feel big and strong, reach for Juggernog tonight!

Untranslated notes:
FC FFEDC FC FFEDC
f e d c G a G d G a G d c# c a CC DD C
f e d c G a G d e d# d c G a F _F

Almost there ...

Sign in to get your own page with links to favourite songs and more. You are just one click away...

Login with Facebook Login with Google