Log in

One click and you are in

Login with Facebook Login with Google

Why sign up and log in

Guitar Tabs Explorer
Misc Computer Games chords for Animal crossing - the roost cafe ukulele

Animal Crossing - The Roost Cafe Ukulele chords by Misc Computer Games

Misc Computer Games chords for Animal crossing - the roost cafe ukulele

Guitar chords

This is my interpretation of The Roost Cafe theme music, tabbed by ear from listening to the video below.
https://www.youtube.com/watch v=15KNKNw7u5A


A|------------2--3------------------2--3--|
E|----0~--3~--0--0--0-------0---0-3-0--0--|
C|0~----------0--0----0---0---0-----0--0--|
G|------------0--0------0-----------0--0--|

A|------------2-0-2~---------------3~-----|
E|0-------0-------3~-0~-3~--3~-3-5-4~-3-1-|
C|--0---0---0-----4~------0~-------5~-----|
G|----0-----------0~---------------0~-----|

A|3~--------3~---------3~-5-5-5-3-2-0-2-0~|
E|0~--------3~---0~-3~----00-0-0-0-0------|
C|0~-0~-0-2-3~---0~-------0---------------|
G|0~--------3~------------0---------------|

Almost there ...

Sign in to get your own page with links to favourite songs and more. You are just one click away...

Login with Facebook Login with Google