Log in

One click and you are in

Login with Facebook Login with Google

Why sign up and log in

Guitar Tabs Explorer
Misc Computer Games bass tabs for Animal crossing - new leaf 5 pm

Animal Crossing - New Leaf 5 Pm bass tab by Misc Computer Games

Misc Computer Games bass tabs for Animal crossing - new leaf 5 pm

Bass tabs

Tuning: Standard (E A D G)

Tempo 115 bpm
G|------------------|-----------------|-----------------|-----------------|
D|o-----------------|-----------------|-----------------|-----------------|
A|o---------3-----3-|---------3-----3-|---------3-----3-|---------3-----3-|
E|--1-----1---------|-1-----1---------|-1-----1---------|-1-----1---------|

   Q.    E Q.    E   Q.    E Q.    E   Q.    E Q.    E   Q.    E Q.    E
G|-----------------|-----------------|-----------------|-----------------|
D|-----------------|-----------------|-----------------|-----------------|
A|---------2-----2-|---------2-----2-|-6-----6---------|-6-----6---------|
E|-0-----0---------|-0-----0---------|---------6-----6-|---------6-----6-|

   Q.    E Q.    E   Q.    E Q.    E   Q.    E Q.    E   Q.    E Q.    E
G|-----------------|-----------------|-----------------|-----------------|
D|-----------------|-----------------|-----------------|-----------------|
A|-5-----5---------|-5-----5---------|-4-----4---------|-4-----4---------|
E|---------5-----5-|---------5-----5-|---------4-----4-|---------4-----4-|

   Q.    E Q.    E   Q.    E Q.    E   Q.    E Q.    E   Q.    E Q.    E
G|-----------------|-----------------|-----------------|-----------------|
D|-----------------|-----------------|-----------------|-----------------|
A|-3-----3---------|-3-----3---------|-3-----3---------|-3-----3---------|
E|---------3-----3-|---------3-----3-|---------3-----3-|---------3-----3-|

   Q.    E Q.    E   Q.    E Q.    E   Q.    E Q.    E   Q.    E Q.    E
G|-----------------|-----------------|-----------------|-----------------|
D|-----------------|-----------------|-----------------|-----------------|
A|---------3-----3-|---------3-----3-|---------3-----3-|---------3-----3-|
E|-1-----1---------|-1-----1---------|-2-----2---------|-2-----2---------|

   Q.    E Q.    E   Q.    E Q.    E   Q.    E Q.    E   Q.    E Q.    E
G|-----------------|-----------------|-----------------|-----------------|
D|-----------------|-----------------|-----------------|-0-----0---------|
A|---------3-----3-|---------3-----3-|-0-----0---------|---------0-----0-|
E|-3-----3---------|-4-----4---------|---------0-----0-|-----------------|

Rest for 8 measures

   Q.    E Q.    E   Q.    E Q.    E   Q.    E Q.    E   Q.    E E Q   E
G|-----------------|-----------------|-----------------|------------------||
D|-----------------|-----------------|-----------------|-----------------o||
A|-3-----3---------|-3-----3---------|---------3-----3-|-----------------o||
E|---------3-----3-|---------3-----3-|-2-----2---------|-1-----1---3---2--||

Almost there ...

Sign in to get your own page with links to favourite songs and more. You are just one click away...

Login with Facebook Login with Google