Log in

One click and you are in

Login with Facebook Login with Google

Why sign up and log in

Guitar Tabs Explorer
Misc Computer Games bass tabs for 7th saga - shop theme

7th Saga - Shop Theme bass tab by Misc Computer Games

Misc Computer Games bass tabs for 7th saga - shop theme

Bass tabs

7th Saga (SNES) - Shop theme...on bass!!!

Gtr I (E A D G)

  Gtr I
   Q.  E E E E E  Q.  E E E E E
G||---------------------|--------------------|
D||o--------------------|--------------------|
A||o-10----10-10---10---|-10----10-10---10---|
E||---------------------|--------------------|
  Q.  E E E E E  Q.  E E E E E
|--------------------|-------------------|
|--------------------|-------------------|
|-10----10-10---10---|-10----10-10---10--|
|--------------------|-------------------|


  Q.  E E E E E  Q.  E E E E E
|--------------------|--------------------|
|--------------------|--------------------|
|-10----10-10---10---|-10----10-10---10---|
|--------------------|--------------------|


  Q.  E E E E E  Q.  E E E E E
|--------------------|--------------------|
|--------------------|--------------------|
|-10----10-10---10---|-10----10-10---10---|
|--------------------|--------------------|


  Q E E Q E E  Q E E E E E E
|-------------------|-12-------12-11-9----|
|-10----10-12----12-|-------12---------12-|
|-------------------|---------------------|
|-------------------|---------------------|


  Q E E Q E E  E E E E Q.  E
|-------------------|-12----------------|
|-10----10-12----12-|------12-----------|
|-------------------|-----------10------|
|-------------------|-------------------|


  Q E E Q E E  Q E E E E E E
|-------------------|-12-------12-11-9----|
|-10----10-12----12-|-------12---------12-|
|-------------------|---------------------|
|-------------------|---------------------|


  Q E E Q E E  Q  Q Q  Q
|-------------------|-----------------||
|-10----10----------|-12-------------o||
|----------12----12-|-----12--9------o||
|-------------------|------------10---||

Almost there ...

Sign in to get your own page with links to favourite songs and more. You are just one click away...

Login with Facebook Login with Google