Log in

One click and you are in

Login with Facebook Login with Google

Why sign up and log in

Guitar Tabs Explorer
Misc Comp Games tabs for Tetris ozma

Guitar tabs

-----=====(((((@@@@)))))=====-----
                          OZMA
              Tabbed By: Michelle G. or CK
"The Tetris Song" That Alex Would Always Play!!! :-)
This song is on the 2001 released Cd, Double Donkey
Disc.
           -----=====(((((@@@@)))))=====-----

|-----
|-----
|-----
|-0---	repeat 16 times


|------------------------
|------------------------
|-2-------1--------------
|---3---0---2---0-2-3---- this is the bass part, it
can
be played on a guitar, but just wouldn't be right.
yeah.


intro:
--------------------------------------------------------
--------------------------------------------------------
--8-8-8-8---------6-6-6-6-------------------------------
----------9-9-9-9---------8-8-8-8-9-9-9-9-6-6-6-6-8-8-8-
--------------------------------------------------------
--------------------------------------------------------

--------------------------------------------------------
--------------------------------------9--8--------------
--8-8-8-8---------6-6-6-6-----------8-------------------
----------9-9-9-9---------8-8-8-8-9---------------------
--------------------------------------------------------
--------------------------------------------------------

chorus:
||-----------------------------------------------------
||-----------------------------------------------------
||-*-8-----6------------9-7----------6-8---------------
||-*---8-9---9-8-6-6-9-----9-8-8-9------9-6-6----------
||-----------------------------------------------------
||-----------------------------------------------------

------------------------------------------||
----9-7-----------------------------------||
6-9-----9-8---8-6---------6-8-----------*-||
------------9-----9-8-8-9-----9--6-6----*-||
------------------------------------------||
------------------------------------------||

go slow on this part:
--------------------------------------------------------
----------------------------9-8-------------------------
-8---6--------------8---6-------8-6---------------------
---9---8-9-6----------9---8---------9-8-6---------------
-------------6----------------------------9-10----------
--------------------------------------------------------

repeat chorus


bridge:
--------------------------------------------------------
--------------------------------------------------------
--6-----------------------------------------------------
----9-6-6-9-8-9-8-6-5--3-1------------------------------
---------------------------3----------------------------
--------------------------------------------------------

--------------------------------------------------------
--------------------------------------------------------
--6-----------------------------------------------------
----9-6-6-9-8-9-8-6-5--3-5-6----------------------------
--------------------------------------------------------
--------------------------------------------------------


repeat intro
"    " chorus


outro:
--------------------------------------------------
--------------------------------------------------
--8-----6------------9-11-------------------------
----8-9---9-8-6--8-9------------------------------
--------------------------------------------------

--------------------------------------------------
----------9--------10-11-10-8-7-8-8-8-------------
--8---------9-6-6---------------------------------
----9-6-6-----------------------------------------
--------------------------------------------------
--------------------------------------------------

Almost there ...

Sign in to get your own page with links to favourite songs and more. You are just one click away...

Login with Facebook Login with Google