Log in

One click and you are in

Login with Facebook Login with Google

Why sign up and log in

Guitar Tabs Explorer
Misc Comp Games tabs for Super mario brothers theme

Super Mario Brothers Theme tab by Misc Comp Games

Misc Comp Games tabs for Super mario brothers theme

Guitar tabs

Title: Super Mario Bros. Theme

The other version of this in the archive didn't sound much like the
song, and there were a lot of big mistakes.  I got all of this from
a midi file that sounds exactly like the game, so this is as correct
as I could get it.  Have fun!

Song order:

Intro
A chord diagramA augmentedA A chord diagramA augmentedA
A chord diagramBB A chord diagramBB
A chord diagramC majorC
A chord diagramA augmentedA A chord diagramA augmentedA
A chord diagramD MajorD A chord diagramD MajorD
A chord diagramC majorC A chord diagramD MajorD
_____________________________________________________________________

Intro:
|-----------------3---------------|
|-5-5---5-----5---0---------------|
|-----------5-----0-------0-------|
|-4-4---4---4-4-------------------|
|-5-5---5---5-5-------------------|
|-------------------------3-------|


Part A:
|---------------------------------|----0--3--5---1-3---0-------------|
|-1-------------------------------|------------------------1-3-0-----|
|-0-----0-----------2---4---3-2---|-0--0--4--5---2-4---2-------------|
|-2-----2-----2-----3---5---4-3---|-------2--3---0-2-------2-3-0-----|
|-------3-----3-----3---5---4-3---|-3--3---------------3-------------|
|-------------3-------------------|------------------------3-5-0-----|
                                    (triplet)

Part B:
|---------------------------------|-------------------8---8-8-------|
|-----8-7-6-4---5-------1-----1h3-|-----8-7-6-4---5---8---8-8-------|
|-----9-8-7-4---5---1/2-0---2-----|-----9-8-7-4---5---7---7-7-------|
|-------5-----------2/3-------2h3-|---------------------------------|
|-------------3---------3-3-3-----|-------7--------------------/10--|
|-8---------------1---------------|-8-----------3-------------------|

|---------------------------------|---------------------------------|
|-----8-7-6-4---5-------1-----1h3-|-----4-----3-----1---------------|
|-----9-8-7-4---5---1/2-0---2-----|---------------------------------|
|-------------3-----2/3-------2h3-|-----6-----3-----2-----5-5-------|
|-----------------------3-3-3-----|-----------1-----3-----------3---|
|-8---------------1---------------|-8---4---------------------------|

Part C:
|---------------------------------|---------------------------------|
|-1-1---1---1-3---5---------------|-1-1---1---1-3-5-----------------|
|-1-1---1---1-3-----5---2-0-------|-1-1---1---1-3-------------------|
|-------1---------5-----2---------|-------1-------5-----------------|
|-------------------------3-------|-----------------------3---------|
|-4---------------------------3---|-4---------------------------3---|

|---------------------------------|-----------------3---------------|
|-1-1---1---1-3---5---------------|-5-5---5-----5---0---------------|
|-1-1---1---1-3-----5---2-0-------|-----------5-----0-------0-------|
|-------1---------5-----2---------|-4-4---4---4-4-------------------|
|-------------------------3-------|-5-5---5---5-5-------------------|
|-4---------------------------3---|-------------------------3-------|


Part D:
|-------------------1---1---------|----5--5--5--3--1--0---------------|
|-5-----------------1---1---------|-0--6--6--6--5--3--1-1-------------|
|-5-5---0-----1---2-------2-------|-0--------------3----2---2-0-------|
|---7---2-----2---3-------3-------|-0-----3--5--------------3-2-------|
|-------------3-----------3-3-----|---------------------------3-3-----|
|-8-------3-------1---1-------1---|-------------------3---3-------1---|
                                    (triplet)(triplet)

|-------------------1---1---------|---1---1-1--0---------------------|
|-5-----------------1---1---------|-0-3---3-3--1--3--1-------1-------|
|-5-5---0-----1---2-------2-------|-0-------------4--0---------------|
|---7---2-----2---3-------3-------|--------------------2---2---------|
|-------------3-----------3-3-----|------------0--2--3-------3-------|
|-8-------3-------1---1-------1---|-3-3---3-3------------3-----------|
                                             (triplet)

Almost there ...

Sign in to get your own page with links to favourite songs and more. You are just one click away...

Login with Facebook Login with Google