Log in

One click and you are in

Login with Facebook Login with Google

Why sign up and log in

Guitar Tabs Explorer
Misc Comp Games tabs for Shining force

Guitar tabs

NAME-ANTHONY MURPHY (UNCLEFRED23@YAHOO.COM)
DATE-MARCH 19 2006
SUBJECT main/m/misc_comp_games/shining_force.tab

E------------------------------------------------------
B----12-10-9-------------12-12-10-12-14-10-------------
G------------9-11--------------------------------------
D-9-9----------------9-9-------------------------------
A------------------------------------------------------
E------------------------------------------------------

E------------------------------------------------------
B-------12-10----14-12----15-12-15-14-14-15-16-17-13---
G-------------12-------14------------------------------
D------------------------------------------------------
A---9-9------------------------------------------------
E------------------------------------------------------

done by ear with game

Almost there ...

Sign in to get your own page with links to favourite songs and more. You are just one click away...

Login with Facebook Login with Google