Log in

One click and you are in

Login with Facebook Login with Google

Why sign up and log in

Guitar Tabs Explorer
Misc Comp Games tabs for Runescape theme song

Guitar tabs

Hi everyone. I'm gonna show you how to play the runescape theme song.
By the way my username on runescape is "afimgmt"   Enjoy :-)

---12--14-13------------------------------|
---12--14-13------------------------------|
-10---9-----------------------------------|
------------------------------------------|
-----------12-(14)------------------------|
------------------------------------------|
hold the 14 for 5 seconds

------------------------------------------------|
------------------------------------------------|
-1-2-3-6-5-4-1-2-3-6-5-4-1-2-3-6-5-4-1-2-3-6-5-4|
------------------------------------------------|
------------------------------------------------|
------------------------------------------------|

Thats mostly what it does. Try playing it along with it if you go on.

Almost there ...

Sign in to get your own page with links to favourite songs and more. You are just one click away...

Login with Facebook Login with Google