Log in

One click and you are in

Login with Facebook Login with Google

Why sign up and log in

Guitar Tabs Explorer
Misc Comp Games tabs for Punchout fight

Guitar tabs

Title: Punchout (Fighting Music)
Album: Mike Tyson's Punchout
WebPage: <http://pages.infinit.net/razcal/>http://pages.infinit.net/razcal/

I have searched the web for this tab but found nothing......
I finally decided to tab this song... And it's complete not like all tabs....
Intro
------------------------------|-----------------------------------------------
------------------------------|-----------------------------------------------
------------------------------|-----------------------------------------------
-7---7-7---5---3---3-3--5-5-7-|-----------------------------------------------
-7---7-7---5---3---3-3--5-5-7-|-----------------------------------------------
-5---5-5---3---1---1-1--3-3-5-|-----------------------------------------------


Riff 1
-5----7--8--8--7--5----3/5--3----3/5--3----8--7--5----7--8--8--7--8----10/12--
------------------------------------------------------------------------------
------------------------------------------------------------------------------
------------------------------------------------------------------------------
------------------------------------------------------------------------------
------------------------------------------------------------------------------


-10----10/12--10----12p10--12p10----|
---------------------------------10-|
------------------------------------|
------------------------------------|
------------------------------------|
------------------------------------|

Riff 2
-------17--20--19--------17--19--20--19--20--19-----------17--17--20--19---24-
----17-------------20----------------------------18----20---------------------
-17---------------------------------------------------------------------------
------------------------------------------------------------------------------
------------------------------------------------------------------------------
------------------------------------------------------------------------------
                                 &nbp;


Solo
-12-------12-------|-13-------13-------|-12-------12-------|-10------10-------
----13-10----13-10-|----15-12----15-12-|----13-10----13-10-|----11-8----11-8--
-------------------|-------------------|-------------------|------------------
-------------------|-------------------|-------------------|------------------
-------------------|-------------------|-------------------|------------------
-------------------|-------------------|-------------------|------------------

Order:
    Intro  \
    Riff 1  | Repeat 2x
    Riff 2 /

    Solo

    Intro  \
    Riff 1  | Repeat 2x (w/ Distortion!)
    Riff 2 /

Almost there ...

Sign in to get your own page with links to favourite songs and more. You are just one click away...

Login with Facebook Login with Google