Log in

One click and you are in

Login with Facebook Login with Google

Why sign up and log in

Guitar Tabs Explorer
Misc Comp Games tabs for Katamari damacy overworld

Katamari Damacy Overworld tab - Misc Comp Games

Misc Comp Games tabs for Katamari damacy overworld

Guitar tabs

Title: (Overworld theme) "The Wonderful Star's Walk is Wonderful"
Album/Game: Katamari Damacy
Tabbed by: Ryan Patterson (June 2006)


This is the main guitar part from the song "The Wonderful
Star's Walk is Wonderful" from 'Katamari Damacy' (PS2 game).
The only way to know that's the title is to look at the
soundtrack, though.  It's the song playing during the level
selection / overworld part.
|--------|--------|--------|--------|
|----1---|----6---|5-------|--------|
|--2---2-|--7---7-|--5---5-|--5-----| (repeat ad nauseum)
|3-------|8-------|----5---|7--/8-7-|
|--------|--------|--------|--------|
|--------|--------|--------|--------|


last bar is sometimes this:
|--------|
|----6---|
|--5-----|
|7-------|
|--------|
|--------|


Alternate way to play it, although the string screeches are
different from the game's version this way:

|--------|----1---|0-------|--------|
|----1---|--3---3-|--1---1-|--1-----|
|--2---2/|3-------|----0---|2--/3-2-|
|3-------|--------|--------|--------|
|--------|--------|--------|--------|
|--------|--------|--------|--------|

Almost there ...

Sign in to get your own page with links to favourite songs and more. You are just one click away...

Login with Facebook Login with Google