Log in

One click and you are in

Login with Facebook Login with Google

Why sign up and log in

Guitar Tabs Explorer
Misc Comp Games tabs for Halo theme song

Guitar tabs

Title: Halo theme song
Original composer: Marty O'Donell
Album: --
Awesomness: Holy S**T!!
 These tabs are just something i picked up from
hours of video games :D


Intro
1------------------------------------------------
2------------------------------------------------
3------------------------------------------------
4------------------------0-----------------------
5---0-------2---3---2---------2---3------0-------
6------------------------------------------------


1------------------------------------------------
2------------------------------------------------
3---0---2---3--------2---------2------0----------
4-------------------------3----------------------
5------------------------------------------------
6------------------------------------------------




Main Riff a.k.a. "Battle Music"
1------------------------------------------------
2------------------------------------------------
3-----0-0-0-5--------5-0-0-0-7--------7--0--0-8--
4-----0-0-0-3--------3-0-0-0-7--------7--0--0-7--
5------------------------------------------------
6------------------------------------------------


1------------------------------------------------
2------------------------------------------------
3---0--0-10--10-0-0-10-9-7-----------------------
4---0--0-10--10-0-0------------------------------
5------------------------------------------------
6------------------------------------------------


Reapeat ^this^ twice or whatever.

This is all i have so far. If you have questions or comments, e-mail me @  firefartman1221@yahoo.com

happy strumming <:]

Almost there ...

Sign in to get your own page with links to favourite songs and more. You are just one click away...

Login with Facebook Login with Google