Log in

One click and you are in

Login with Facebook Login with Google

Why sign up and log in

Guitar Tabs Explorer
Misc Comp Games tabs for Final fantasy vii prelude

Final Fantasy Vii Prelude tab by Misc Comp Games

Misc Comp Games tabs for Final fantasy vii prelude

Guitar tabs with lyrics

 
e|------------------------------------------------|
b|------------------------13----------------------|
g|.--------------------12----12-------------------|
A chord diagramD MajorD|.-----------10-12-14----------14-12-10----------|
A chord diagramA augmentedA|---------10----------------------------10-------|
A chord diagramE MajorE|-8-10-12----------------------------------12-10-|
 
e|------------------------------------|
b|------------------10----------------|
g|----------------9----9--------------|
A chord diagramD MajorD|---------7-9-10--------10-9-7-------|
A chord diagramA augmentedA|-------7----------------------7-----|
A chord diagramE MajorE|-5-7-8--------------------------8-7-|
 
e|------------------------------------------------|
b|------------------------13----------------------|
g|---------------------12----12-------------------|
A chord diagramD MajorD|------------10-12-14----------14-12-10----------|
A chord diagramA augmentedA|---------10----------------------------10-------|
A chord diagramE MajorE|-8-10-12----------------------------------12-10-|
 
e|------------------------------------|
b|------------------10----------------|
g|----------------9----9--------------|
A chord diagramD MajorD|---------7-9-10--------10-9-7-------|
A chord diagramA augmentedA|-------7----------------------7-----|
A chord diagramE MajorE|-5-7-8--------------------------8-7-|
 
e|------------------------------------------|
b|---------------------10-------------------|
g|---------------10-12----12-10-------------|
A chord diagramD MajorD|----------7-10----------------10-7--------|
A chord diagramA augmentedA|-----8-10--------------------------10-8---|
A chord diagramE MajorE|-5-8------------------------------------8-|
 
e|----------------------------------------------|
b|-----------------------12---------------------|
g|-----------------12-14----14-12---------------|
A chord diagramD MajorD|------------9-12----------------12-9----------|
A chord diagramA augmentedA|------10-12--------------------------12-10----|
A chord diagramE MajorE|-7-10--------------------------------------10-|
 
e|---------------------------------------|
b|--------------------9------------------|
g|---------------8-12---12-8-------------|
A chord diagramD MajorD|----------6-10-------------10-6--------|
A chord diagramA augmentedA|-----6-10-----------------------10-6---|
A chord diagramE MajorE|-4-8---------------------------------8-|
 
e|--------------------------------------------|
b|----------------------11--------------------|
g|----------------10-14----14-10-------------.|
A chord diagramD MajorD|-----------8-12----------------12-8--------.|
A chord diagramA augmentedA|------8-12--------------------------12-8----|
A chord diagramE MajorE|-6-10------------------------------------10-|
 
Repeat from start.
 
 

Note: This version of the theme only covers two octaves (per section),
whereas the original covers 4. If you want to play the whole version you
need to play the following (just ascending part of first line tabbed):
 
                             /^^^^^^^^^^^^^^^^^^^^^^\
---------------------------15--------15-20-15--------
-------------------13-15-17--13-15-17--------17-15-13
-----------------12----------------------------------
---------10-12-14------------------------------------etc
-------10--------------------------------------------
8-10-12----------------------------------------------
 
with the parts within /^^^\ played one octave higher. This can be
accomplished by using an octave pedal, or by playing those notes with
pinched harmonics (pinching half way between the fret you are holding and
the bridge).

Almost there ...

Sign in to get your own page with links to favourite songs and more. You are just one click away...

Login with Facebook Login with Google