Log in

One click and you are in

Login with Facebook Login with Google

Why sign up and log in

Guitar Tabs Explorer
Misc Comp Games tabs for Final fantasy vi snowfield

Final Fantasy Vi Snowfield tab by Misc Comp Games

Misc Comp Games tabs for Final fantasy vi snowfield

Guitar tabs with lyrics

Snowfield Theme from Final Fantasy VI/II(Nobuo Uematsu)

I am glad I got the chance to be the one to write this tab.  It's one of my
favourites, and it sounds GREAT on an acoustic guitar.  It's also easy enough
so that a beginner can use it to practice picking.  This is (partly by
necessity)
an interpretation of the piece, and the alternating parts are an addition.
If you don't like them, don't play them!  The notes are relatively spaced out
for legibility - listening to the piece is the best way to get the real
beat and tempo.

() - optional
Introduction

  A-   (2x or Repeat as desired)                               Main
e:-------------------------------||-----------------------------------|
B:--------1---------------1------||--------1-------1-----------------0|
G:----2---2-----------2---2------||----2---2-------------------(2)-2--|
D:2---2--------2222---2-------222||2---2-------2---2------------------|
A:0------------0000-----------000||0-----------0---0------------------|
E:-------------------------------||-----------------------------------|


  A-                               E-
e:--0-----------------------------|--------------------------------|
B:1---1---1-------1-------1---0---|0-----------------------------0-|
G:2-------2-------2-------2-----2-|0---------------------------2---|
D:--------------------------------|2-------2-----------------------|
A:0-----------0-------0-----------|--------2-----------------------|
E:--------------------------------|--------------------------------|

  A-                               E-
e:--0-----------------------------|--------0-----------------------|
B:1---1---1-------1-------1---0---|0-------0------------------1-1-3|
G:2-------2-------2-------2-----2-|0-------0-----------------------|
D:--------------------------------|2-------2-----------------------|
A:0-----------0-------0-----------|2-------------------------------|
E:--------------------------------|--------------------------------|

  A chord diagramC majorC                                A chord diagramG+G
e:0-3-0---0-------0-------0-------|--------------------------------|
B:1-------1-------1-------1---3-1-|3-------3-------3-------3----1-0|
G:0-------0-------0-------0-------|0-------0-------0-------0-------|
D:--------------------------------|--------------------------------|
A:3-----------3-------3-----------|--------------------------------|
E:--------------------------------|3---3-------3-------3-----------|

  A-                                    ->Repeat Main||or Transition
e:--------------------------------|------------------||--------0--0|
B:----------------------------1-0-|------------------||----1--1--1-|
G:2-------2-------2-------2-------|2-------2-------2-||---2--2--2--|
D:2-------2-------2-------2-------|2-------2-------2-||--2--2------|
A:----0-------0-------0-----------|----0-------0-----||-0----------|
E:--------------------------------|------------------||------------|


2nd verse

          A chord diagramC majorC                        A-              E-
e:--------------------------------|--------------------------------|
B:--------1---------------1-------|1-----------0-------------------|
G:--------0-------0-------0-------|2-------------2-0---------------|
D:--------2-------2-------2-------|2---------------2---------------|
A:--------3-------3---------------|0---------------2---------------|
E:--------------------------------|--------------------------------|


          A chord diagramC majorC                        A chord diagramG+G
e:--------------------------------|--------------------------------|
B:--------1---------------1-------|0---1---3-----------------------|
G:--------0-------0-------0-------|0-------0-----------------------|
D:--------2-------2-------2-------|0-------------------------------|
A:--------3-------3---------------|--------------------------------|
E:--------------------------------|3-------3-----------------------|


          A-                                   E-
e:--------------------------------|--------------------------------|
B:--------------------------------|--------------------------------|
G:--------2---------------2-------|2-----------0---0---------------|
D:--------2-------2-------2-------|2-----------2---2---------------|
A:----------------0---------------|0-----------2---2---------------|
E:--------------------------------|--------------------------------|

  A-                               A chord diagramG+G (extend repetitions as desired)
e:----------------0---------------|--------------------------------|
B:1---------------1------------3--|3-------3-------3-------1---0---|
G:2---------------2---------------|0-------0-------0---------------|
D:2---------------2---------------|0-------0-------0---------------|
A:0-------------------------------|--------------------------------|
E:--------------------------------|3---3-------3-------3-----------|


Return to introduction and repeat as desired.

---------------------------------------------------------------------

"Give me a cloak, a hat with a feather in it, a bag and a pair of
boots, and you will see what I can do."

- Puss in Boots

Almost there ...

Sign in to get your own page with links to favourite songs and more. You are just one click away...

Login with Facebook Login with Google