Log in

One click and you are in

Login with Facebook Login with Google

Why sign up and log in

Guitar Tabs Explorer
Misc Comp Games tabs for Final fantasy town

Guitar tabs

my name: Mike D.
my  the town song in final fantasy 1 for nintendo
notes: you really need to hear the song first before u can play this, just
buy an antique nintendo and the FF1 cartridge and spend an hour inside a
town. There might be missing a few notes but it sounds very good


A chord diagramE MajorE||------------------------|---------------------------------|
A chord diagramBB||---9----10----9----7----|--5----7----0--------------------|
A chord diagramG+G||*-----------------------|---------------------------------|
A chord diagramD MajorD||*-----------------------|---------------------------------|
A chord diagramA augmentedA||------------------------|---------------------------------|
A chord diagramE MajorE||------------------------|---------------------------------|


----------------------|-------------------|----------------------|
--5----7----5----4----|--2----4-----------|--2----4----5----7----|
----------------------|------------1------|----------------------|
----------------------|-------------------|----------------------|
----------------------|-------------------|----------------------|
----------------------|-------------------|----------------------|


-------------------------|--------------------------------|
--9----10----12----12----|--10----9----2--------2----4----|
-------------------------|--------------------------------|
-------------------------|--------------------------------|
-------------------------|--------------------------------|
-------------------------|--------------------------------|


---------------------||
--9--------7---------||
--------------------*||
--------------------*||
---------------------||
---------------------||

Almost there ...

Sign in to get your own page with links to favourite songs and more. You are just one click away...

Login with Facebook Login with Google